Cifra Club

Potro Sem Dono

Noel Guarany

Cifrado: Versão 2 (guitarra y guitarra eléctrica)
tono: Em
60-52-42-30-20-10-23   60-52-42-30-20-10  60-52-42-30-20   53-42-30-20-10

52-41-32-20-12  (60  20-30  60  20-30  23-30  60  22-30  60  21-30  20-30)

E|-----------0-------------0---------------------0-----------2-|
B|---------0---3---------0------------0--------0-----------0---|
G|-------0-------------0------------0--------0-----------2-----|
D|-----2-------------2------------2--------2-----------1-------|
A|---2-------------2------------2--------3-----------2---------|
E|-0-------------0------------0--------------------------------|

E|-------------------------------------------------------------|
B|----0---0-3----2----1--0-------------------------------------|
G|----0---0-0----0----0--0-------------------------------------|
D|-------------------------------------------------------------|
A|-------------------------------------------------------------|
E|--0---0------0----0------------------------------------------|

Em
A sede de liberdade
D7                  G
Rebenta a soga do potro
C
Que parte em busca do pago
D7
E num galope dispara
C
Rasgando a coxilha ao meio
B7                       Em  B7  Em
Mordendo o vento na cara

Em
Bebe o horizonte nos olhos
D7                  G
Empurra a terra pra trás
C
Já vai bem longe a figura
D7
Mostra um caminho tenaz
C
Da humanidade sofrida
B7                       Em  B7  Em
Que luta em busca da paz

  Em  C  B7         Em
Vai,      potro sem dono
Am    C  B7         Em
Vai,      livre como eu)

Em
Se a morte lhe faz negaças
D7                  G
Joga na vida com a sorte
 C
Desprezo da própria morte
 D7
Não se prende a preconceitos
 C
Nem mata a sede com farsas
B7                   Em  B7  Em
Leva um destino no peito

Em
Nas seivas das madrugadas
D7                    G
Vai florescendo a canção
C
Aquece o fogo de chão
 D7
Enxuga o pranto de ausência
 C
Esta guitarra campeira
 B7                  Em   B7  Em
Velho clarim da querência

  Em  C  B7         Em
Vai,      potro sem dono
Am    C  B7         Em
Vai,      livre como eu)
00:00 / 00:00
Otros videos de esta canción
Repetir
Otros videos de esta canción
Composición de Noel Guarany
Colaboración y revisión:
  • Élison Duarte
  • Leonardo Pires
29 exhibiciones
    • ½ Tono
    • Am
    • Bbm
    • Bm
    • Cm
    • C#m
    • Dm
    • Ebm
    • Em
    • Fm
    • F#m
    • Gm
    • G#m
  • Agregar a la lista
    00:00 / 00:00
    OK