Cifra Club

Wonderwall

Oasis

Tab de bajo: Principal
reproducciones 1.577
Introdução e Primeira Parte: Só o violão

Today is gonna be the day...

Segunda Parte:
Backbeat, the word was on the street...

Parte 1 de 4
G|----------------------------------------------|
D|----------------------------------------------|
A|--------------------------------------7-7-7-7-|
E|-0--0-0--5-7-7-5-7-5--2-2-2--2-5-5-5----------|

G|----------------------------------------------|
D|----------------------------------------------|
A|------------------------------7-7-7-7---------|
E|-5-7-7-5-7-5--2-2-2--2--5-5-5---------5-7-7-5-|

Parte 2 de 4
G|----------------------------------------------|
D|----------------------------------------------|
A|---------------------7-7-7-7------------------|
E|-7-5--2-2-2--2-5-5-5---------5-7-7-5-7-5------|

Parte 3 de 4
G|----------------------------------------------|
D|----------------------------------------------|
A|-5-5--7-7-7-7--9-9-9-9--9-9-7-9---------------|
E|----------------------------------------------|

G|----------------------------------------------|
D|----------------------------------------------|
A|-5-5-5-5--7-7-7-7--9-9-9-9--9-9-7-9-----------|
E|----------------------------------------------|

Parte 4 de 4
G|----------------------------------------------|
D|----------------------------------------------|
A|-5-5--5-7-7-7---------------------------------|
E|--------------5-4-2-5-7-7-5-7-5-7--5-7-5-7----|

G|----------------------------------------------|
D|----------------------------------------------|
A|----------------------------------------------|
E|-5-7--7-7--7-7-7------------------------------|

Refrão:
Because maybe...

Parte 1 de 2
G|----------------------------------------------|
D|----------------------------------------------|
A|-5-5-5-5-7-9-9-7-9-9---------7-9-9-7-9-9------|
E|---------------------5-5-5-5------------------|

G|----------------------------------------------|
D|----------------------------------------------|
A|-5-5-5-5-7-9-9-7-9-9---------7-9-9-7-9-9------|
E|---------------------5-5-5-5------------------|

Parte 2 de 2
G|----------------------------------------------|
D|----------------------------------------------|
A|-5-5-5-5-7-9-9-7-9-9---------7-9-9-7-9-9------|
E|---------------------5-5-5-5------------------|

G|----------------------------------------------|
D|----------------------------------------------|
A|-5-5-5-5-7-9-9-7-9-9---------7h9--------------|
E|---------------------5-5-5-5------------------|

Terceira Parte:
Today was gonna be the day...

Parte 1 de 5
G|----------------------------------------------|
D|----------------------------------------------|
A|----------------------------------------------|
E|-0-0-0--0-0-----------------------------------|

Parte 2 de 5
G|----------------------------------------------|
D|----------------------------------------------|
A|-----------------7-7-7-7--------------9-9-9-9-|
E|-2-2-2-2-2-5-5-5---------5-7-7-5-7-5----------|

G|----------------------------------------------|
D|----------------------------------------------|
A|-9--------7-7-7-7-----------------------------|
E|---5-5-5----------5-7-7-5-7-5-----------------|

Parte 3 de 5
G|----------------------------------------------|
D|----------------------------------------------|
A|-9-9-9-9-9-------7-7-7-7----------------------|
E|-----------5-5-5---------5-7-7-5-7-5--2-2-2-2-|

G|----------------------------------------------|
D|----------------------------------------------|
A|---------7-7-7-7------------------------------|
E|-2-5-5-5---------5-7-7-5-7-5------------------|

Parte 4 de 5
G|----------------------------------------------|
D|----------------------------------------------|
A|-5-5--7-7-7-7--9-9-9-9--9-9-7-9---------------|
E|----------------------------------------------|

G|----------------------------------------------|
D|----------------------------------------------|
A|-5-5-5-5--7-7-7-7--9-9-9-9--9-9-7-9-----------|
E|----------------------------------------------|

Parte 5 de 5
G|----------------------------------------------|
D|----------------------------------------------|
A|-5-5--5-7-7-7---------------------------------|
E|--------------5-4-2-5-7-7-5-7-5-7--5-7-5-7----|

G|----------------------------------------------|
D|----------------------------------------------|
A|----------------------------------------------|
E|-5-7--7-7--7-7-7------------------------------|

Refrão 2:
Because maybe...

Parte 1 de 2 (6x)
G|----------------------------------------------|
D|----------------------------------------------|
A|-5-5-5-5-7-9-9-7-9-9---------7-9-9-7-9-9------|
E|---------------------5-5-5-5------------------|

G|----------------------------------------------|
D|----------------------------------------------|
A|-5-5-5-5-7-9-9-7-9-9---------7-9-9-7-9-9------|
E|---------------------5-5-5-5------------------|

Parte Final:

Parte 1 de 2
G|----------------------------------------------|
D|----------------------------------------------|
A|-5-5-5-5-7-9-9-7-9-9---------7-9-9-7-9-9------|
E|---------------------5-5-5-5------------------|

G|----------------------------------------------|
D|----------------------------------------------|
A|-5-5-5-5-7-9-9-7-9-9---------7-9-9-7-9-9------|
E|---------------------5-5-5-5------------------|

Parte 2 de 2
G|----------------------------------------------|
D|----------------------------------------------|
A|-5-5-5-5-7-9-9-7-9-9---------7-9-9-7-9-9------|
E|---------------------5-5-5-5------------------|

G|----------------------------------------------|
D|----------------------------------------------|
A|-5-5-5-5-7-9-9-7-9-9-------------2/9----------|
E|---------------------5-5-5-5--2---------------|
Compositor: Noel Gallagher Colaboración y revision:
  • Caroline Leroy

0 comentarios

mostrar más comentarios
00:00 / 00:00
outros vídeos desta música
repetir qualidade Automático
Outros vídeos desta música
00:00 / 00:00
Automático
Capítulos
  • Tocando a música
  • Apresentação / Equipamentos
  • Dicas da música
  • Segunda Parte - Parte 1 de 4
  • Segunda Parte - Parte 2 de 4
  • Segunda Parte - Parte 3 de 4
  • Segunda Parte - Parte 4 de 4
  • Refrão - Parte 1 de 2
  • Refrão - Parte 2 de 2
  • Dicas Terceira Parte
  • Terceira Parte - Parte 1 de 5
  • Terceira Parte - Parte 2 de 5
  • Terceira Parte - Parte 3 de 5
  • Terceira Parte - Parte 4 de 5
  • Terceira Parte - Parte 5 de 5
  • Refrão 2 - Final
  • Final - Parte 1 de 2
  • Final - Parte 2 de 2
  • Encerramento
  • Ficha Técnica
OK