Cifra Club

Wonderwall

Oasis

Tablatura: Versao-1 (guitarra)
Tom: A (con acordes en la forma de G) Capo en 2ª casa
(Capo na 2ª casa)

[Intro 4x] Em7  G  D4  A7(4)

[Primeira Parte]

Em7           G
    Today is gonna be the day
              D4                    A7(4)
That they're gonna throw it back to you
Em7              G
    By now you should've somehow
    D4                   A7(4)
Realized what you gotta do
Em7                  G
I don't believe that anybody
 D4              A7/4
Feels the way I do 
           C9  D4  A7(4)
About you now


Em7                G
    Backbeat, the word was on the street
          D4                   A7(4)
That the fire in your heart is out
Em7                  G
    I'm sure you've heard it all before
         D4                 A7(4)
But you never really had a doubt
Em7                  G
I don't believe that anybody
 D4              A7(4)
Feels the way I do 
           Em7  G  D4  A7(4)
About you now

[Pré-Refrão]

   C9      D         Em7
E|-3--3----2h3p2------3---------------------|
B|-3----3--3-----3----3---------------------|
G|-0-------2-------2--0------------0-----0--|
D|-2-------0----------2------0-------0h2----|
A|-3------------------2--0h2---0h2----------|
E|--------------------0---------------------|
   ↓       ↓          ↓                      

   C9      D         Em7
E|-3--3----2h3p2------3---------------------|
B|-3----3--3-----3----3---------------------|
G|-0-------2-------2--0------------0-----0--|
D|-2-------0----------2------0-------0h2----|
A|-3------------------2--0h2---0h2----------|
E|--------------------0---------------------|
   ↓       ↓          ↓     
  
   C9    D         G       D11/F#   Em7
E|-3-3---2h3p2-----3-3-----3-3-----3-3-----|
B|-3---3-3-----3---3---3---3---3---3---3---|
G|-0-----2-------2-0-----0-0-----0-0-----0-|
D|-2-----0---------0-------0-------0-------|
A|-3---------------2-------0-------2-------|
E|-----------------3-------2-------0-------|
   ↓     ↓         ↓     
  
   G        A7(4)
E|-3-3----------0-------0-------0-------0---|
B|-3---3----3-3---3-3-3---3-3-3---3-3-3---3-|
G|-0-----0--0-------0-------0-------0-------|
D|-0--------2-------2-------2-------2-------|
A|-2--------0-------0-------0-------0-------|
E|-3----------------------------------------|
   ↓        ↓       ↓       ↓       ↓  
And all the roads 
We have to walk are winding
And all the lights 
That lead us there are blinding
There are many things that I
Would like to say to you
But I don't know how

[Refrão]

         C9  Em7  G
Because maybe
        Em7
You're gonna be the one 
      C9    Em7  G
That saves me
    Em7   C9  Em7  G
And after all
           Em7   C9  Em7  G  Em7  A7(4)
You're my wonderwall

[Segunda Parte]

Em7            G
    Today was gonna be the day
             D4                    A7(4)
But they'll never throw it back to you
Em7              G
    By now you should've somehow
    D4                       A7(4)
Realized what you're not to do
 Em7                  G
I don't believe that anybody
 D4              A7(4)
Feels the way I do 
           Em7  G  D4  A7(4)
About you now

[Pré-Refrão]

And all the roads 
That lead you there were winding
And all the lights 
That light the way are blinding
There are many things that I
Would like to say to you
But I don't know how

[Refrão]

        C9  Em7  G
I said maybe
        Em7
You're gonna be the one 
      C9    Em7  G
That saves me
    Em7   C9  Em7  G
And after all
           Em7   C9  Em7  G  Em7
You're my wonderwall

        C9  Em7  G
I said maybe
        Em7
You're gonna be the one 
      C9    Em7  G
That saves me
    Em7   C9  Em7  G
And after all
           Em7   C9  Em7  G  Em7
You're my wonderwall

        C9  Em7  G
I said maybe
        Em7
You're gonna be the one 
      C9    Em7  G
That saves me
        Em7
You're gonna be the one 
      C9    Em7  G
That saves me
        Em7
You're gonna be the one 
      C9    Em7  G
That saves me

(C9  Em7  G  Em7) 4x
reproducciones 631
Acordes para:
    Composição: Noel Gallagher Colaboración y revision:
    • Hiago Roberto

    0 comentarios

    mostrar más comentarios

    ¿Conseguiste tocar?

    0 tocaron 0 aún no

    ¡Graba un vídeo tocando Wonderwall y envianoslo!

    00:00 / 00:00
    outros vídeos desta música
    repetir qualidade Automático
    Outros vídeos desta música
    00:00 / 00:00
    Automático
    Capítulos
    • Tocando a música
    • Apresentação / Equipamentos
    • Acordes da música
    • Tocando Introdução
    • Ritmo da música
    • Dicas Primeira Parte
    • Tocando Primeira Parte
    • Ritmo da Primeira Parte (variação)
    • Dicas Pré-refrão
    • Tocando Pré-refrão
    • Dicas Refrão
    • Tocando Refrão
    • Dicas Segunda Parte - Final
    • Tocando Segunda Parte - Final
    • Encerramento
    OK