Cifra Club

Naves Imperiais

Oficina G3

Cifrado: Versão 2 (guitarra y guitarra eléctrica)
tono: D
riff1 sem distorção varias vezes
  Bm    A/B  G7M       A
e|-----------------------------|
B|-3~-3-2--------3~-------3-2~-|
G|-4~-4-2~-0~-----0~-----2-----|
D|-4~-4-2~----------4---2------|
A|-2~-2-2~-----4~------0-------|
E|----------3~-----------------|

solo sobre riff 1
e|----9-19-12-9h10--------------------------------------|
B|--10------------10---------------------10p7------9s11-|
G|-9----------------9-7-6-7s9------6-7-9-----9-7-9------|
D|----------------------------7-8-9---------------------|

e|------------14-12-9-12-10-9-10p9--------------9h--10-p9-------|
B|------10-12---------------------10-------8s10----------10~~~--|
G|-(11)-----------------------------9-11-12---------------------|

riff2
D|-4---0-0-0-0-0-0-0-0---0-0-0-0-0-0---------|
A|-4---4-4-4-4-4-4-4-4---4-4-4-4-4-4-2-----4-|
E|-5h7-7-7-5-7-7-5-7-5h7-7-5-7-7-5-7-3-----5-|

riff3
   A     Em   D    A  
D|-------5--5-4--4--------------|
A|-4-----8--7-5--5-4------------|
E|-5-7-8-----------5-5-7-8-7-5~-|

riff4 
  Bm            G    A
D|-0--0----------------|
A|-5--5-------5-2----4-|
E|-7--7-5-7-5-7-3----5-|

intro(riff1 varias vezes e solo)G(riff2 2x e riff3)

riff4
somos como naves imperiais a serviço do nosso rei
naves de guerra onde so ha ida e não ha tempo pra parar olhar para tras
somos jovens que creem no Deus vivoooo
riff3 
que enviou seu filho para nos salvar 
riff2 
aleluiaaaaaaa  aleluiaaaaaaa
riff3
nosso comandante é Jesus cristo filho de Deus
riff2
aleluiaaaaaaaaaaaa aleluiaaaaaaa
00:00 / 00:00
Otros videos de esta canción
Repetir
Otros videos de esta canción
Composición de Túlio Régis
Colaboración y revisión:
  • weslei
  • lucas oliveira
22 vistas
    • ½ Tono
    • A
    • Bb
    • B
    • C
    • Db
    • D
    • Eb
    • E
    • F
    • F#
    • G
    • Ab
  • Agregar a la lista

    0 comentarios

    Ver todos los comentarios
    00:00 / 00:00
    OK