Cifra Club

Karasu

One Ok Rock

Cifrado: Principal (guitarra y guitarra eléctrica)
tono: G
Intro:

     E5           C5      D5          Eb5+
E|--------------------------------------------|
B|------3--3-1-0-------------3--3-1-0-1----0--|
G|----0----------0----2----2------------------| 2x 
D|--2--------------------0--------------------|
A|--------------------------------------------|
E|--------------------------------------------|

Verso:

E5               C5
Souchou no gomi sute basho ni wa
D5            Eb5+
Shinogi atte ikiru kuroi tori-tachi
E5                C5
Sore to bokura daburasete mite
D5                Eb5+
Kanashii sekai de ikiteiru to kakushin

E5      C5      D5       Eb5+        D4
Hyoujou hitotsu kaezu ni kubi kashige
E5          C5         D5      Eb5+
Kuroi me no okusoko wa shimen-soka

 Obs: E4
E|---------|
B|---------|
G|----5----|
D|----7----|
A|----7----|
E|---------|
 
( E5  C5  D5  Eb5+ )
( E5  C5  D5  E4 )

Refrão:

Riff 1 (oitavadas):  (2x)
E|------------------------------------------------------|
B|------------------------------------------------------|
G|--4-----9-----5-----9-----7-----11-----14-----12------|
D|--2(4x)-x(4x)-x(4x)-x(4x)-x(4x)-x(4x)--x-(3x)-x-(5x)--|
A|--------7-----3-----7-----5-----9------12-----10------|
E|------------------------------------------------------|

E|------------------------------------------------------|
B|------------------------------------------------------|
G|--4-----9-----5-----9-----7-----11-----8------11------|
D|--2(4x)-x(4x)-x(4x)-x(4x)-x(4x)-x(4x)--x(4x)--x-(4x)--|
A|--------7-----3-----7-----5-----9------6------9-------|
E|------------------------------------------------------|

E5  C5  D5  Eb5+
Naiteru ka waratteru ka sore sura kimira ni wa wakaranai
E5  C5  D5  E4
Kono kodoku dakishimete kanashisa de karada wa makkuro sa
E5  C5  D5  Eb5+
Kono tsubasa itsuno hi ka kuro yo ka shiro e to kawatte itte
E5  C5  D5  E4
Naka wa akuma soto wa tenshi Kore wo tsukuridasu no wa so omaera sa

(Intro)

Verso:

E5                 C5
Choito name sugita mitai da na
D5             Eb5+    D4
Orera wa zenbu oboeteru
E5               C5
Ano hi omaera ni sareta koto
D5             Eb5+
Kyou mo ano denchuu kara miteiruzo

E5          C5
Fukushuu no na wo karite
D5          Eb5+       D4
Mizukara ga ue ni tachi
E5        C5              D5      Eb5+
Soko kara miru keshiki wa kitanai ndarou na

( E5  C5  D5  Eb5+ )
( E5  C5  D5  E4 )

Refrão:

(Riff 1)

E5           C5             D5                  Eb5+
Togareteta katana ga ima shiji sareru demo naku nukarete tte
E5           C5              D5                  E4
Kizu tsukete ki ga tsukeba tori kaeshi no tsukanai koto ni naru
E5            C5             D5               Eb5+
Boku wa nande kanashiku mo kono jidai ni umarete kita ndarou?
E5           C5            D5                 E4
Jibun sura seigyo dekizu marude tobikata wo wasureteru karasu

Solo:

Base do solo:  E5  C5  G5  F#5+ (4x)

E|----------------------------------|
B|--5-----8-----15-----13----12-----|
G|--x(8x)-x(8x)-x(11x)-x(3x)-x(2x)--|
D|--2-----5-----12-----10----9------|
A|----------------------------------|
E|----------------------------------|

E|----------------------------|
B|--5-----8-----15-----10-----|
G|--x(8x)-x(8x)-x(12x)-x(3x)--|
D|--2-----5-----12-----7------|
A|----------------------------|
E|----------------------------|

E|----------------------------------|
B|--5-----8-----15-----13----12-----|
G|--x(8x)-x(8x)-x(11x)-x(3x)-x(2x)--|
D|--2-----5-----12-----10----9------|
A|----------------------------------|
E|----------------------------------|

E|----------------------|
B|--5-----8-----15------|
G|--x(8x)-x(8x)-x(16x)--|
D|--2-----5-----12------|
A|----------------------|
E|----------------------|

Outro:

Guitarra 1
E|--------------------------------------|
B|----7---7----3---3--3---3------5---5--|
G|--9---9----5---5------5---5--7---7----|
D|--------------------------------------| 3x 
A|--------------------------------------|
E|--------------------------------------|

E|-----------------------------|
B|----7---7----3---3--3---3----|
G|--9---9----5---5------5---5--|
D|-----------------------------|
A|-----------------------------|
E|-----------------------------|

Guitarra 2
E|------------------------------------|
B|------------------------------------|
G|------7-------4-------7---5---4-----|
D|----5---5---2---2---4-----------4---| 3x 
A|--7-------3-------5-----5---5-------|
E|------------------------------------|

E|-----------------------------|
B|-----------------------------|
G|------7-------4-------7------|
D|----5---5---2---2---4---5~~--|
A|--7-------3-------5----------|
E|-----------------------------|
The wing turns to white
I won't stop the fight


Refrão:

(Riff 1)

E5           C5         D5                     Eb5+
Naiteru ka waratteru ka sore sura dare ni mo wakari wa shinai
E5          C5             D5                 E4
Kono kodoku toki hanatte dareka ni tsutaeru beki shiro ga aru
E5           C5              D5                   Eb5+
Kono tsubasa itsu no hi ka kuro demo shiro demo naku natte tte
E5             C5            D5                  E4
Katachi sura mienaku natte mata arata na nanika tsukuridasu no sa

Final:

     E5           C5        D5          Eb5+
E|----------------------------------------------|
B|----------------------------------------------|
G|------7--7-5-4---------------7--7-5-4---------|
D|---------------5----5/7---------------5----4--| 3x 
A|--7----------------------7--------------------|
E|----------------------------------------------|

     E5           C5        D5
E|---------------------------------------|
B|---------------------------------------|
G|------7--7-5-4---------------7--7-5-4--|
D|---------------5----5/7----------------|
A|--7----------------------7-------------|
E|---------------------------------------|

     E4
E|---------------------------|
B|----------------7h8-10-10--|
G|------4h5-(5)/7------------|
D|--5h7----------------------|
A|---------------------------|
E|---------------------------|
00:00 / 00:00
Otros videos de esta canción
Repetir
Otros videos de esta canción
Composición de Alex / Taka
Colaboración y revisión:
  • Leo OORguitah
79 vistas
    • ½ Tono
    • A
    • Bb
    • B
    • C
    • Db
    • D
    • Eb
    • E
    • F
    • F#
    • G
    • Ab
  • Agregar a la lista

    0 comentarios

    Ver todos los comentarios

    ¿Lograste tocar?

    0 Tocaron 0 Aún no

    ¡Graba un video tocando Karasu y envíanoslo!

    00:00 / 00:00
    OK