Cifra Club

Hey You

Pink Floyd

Tablatura: Principal (guitarra)
Tom: G
[Intro]

E|----------------------------------|-------5-----5----------5-----5---| 
B|-7-----8-----8----7-----8-----8---|-5-------6-----6--5-------6-----6-| 
G|-----9---9-----9------9---9-----9-|-----7-----7----------7-----7-----| 
D|---9-------9--------9-------9-----|---7----------------7-------------|
A|----------------------------------|----------------------------------| 
E|----------------------------------|----------------------------------|

E|----------------------------------|-------5-----5----------5-----5---| 
B|-7-----8-----8----7-----8-----8---|-5-------6-----6--5-------6-----6-| 
G|-----9---9-----9------9---9-----9-|-----7-----7----------7-----7-----| 
D|---9-------9--------9-------9-----|---7----------------7-------------|
A|----------------------------------|----------------------------------| 
E|----------------------------------|----------------------------------|

E|----------------------------------|-------5-----5----------5-----5---| 
B|-7-----8-----8----7-----8-----8---|-5-------6-----6--5-------6-----6-| 
G|-----9---9-----9------9---9-----9-|-----7-----7----------7-----7-----| 
D|---9-------9--------9-------9-----|---7----------------7-------------|
A|----------------------------------|----------------------------------| 
E|----------------------------------|----------------------------------|

E|----------------------------------|-------5-----5----------5-----5---| 
B|-7-----8-----8----7-----8-----8---|-5-------6-----6--5-------6-----6-| 
G|-----9---9-----9------9---9-----9-|-----7-----7----------7-----7-----| 
D|---9-------9--------9-------9-----|---7----------------7-------------|
A|----------------------------------|----------------------------------| 
E|----------------------------------|----------------------------------|
 
     Em
Hey you
Out there in the cold
Getting lonely, getting old
         Bm
Can you feel me?
     Em
Hey you
Standing in the aisle
With itchy feet and fading smile
         Bm
Can you feel me?
     D
Hey you
                             G    D C
Don't help them to bury the light
 Bm             Am        Em
Don't give in, without a fight

     Em
Hey you
Out there on your own
Sitting naked by the phone
           Bm
Would you touch me?

     Em
Hey you
With your ear against the wall
Waiting for someone to call out
           Bm
Would you touch me?

D
 Hey you
                                 G    D C
Would you help me to carry the stone?
Bm             Am           Em
Open your heart, I'm coming home

[Solo]  Am  Em

 
E|---------|------------------------------|
B|---------|------------------------------|
G|---------|------------------------------|
D|---------|------------------------------|
A|---------|-0-2-3-2----------------------|
E|-0-2-3-2-|------------------------------|
 
[Solo]

E|---------------------------------------------------------------------------|
B|-----------------------------------------------------5h7-------------------|
G|-7b9~~-r7--7b9-7b9~~-r7--7b9-7b9~~--7b9r8-7b9--7b9~~-----0-----------------|
D|---------------------------------------------------------------------------|
A|---------------------------------------------------------------------------|
E|---------------------------------------------------------------------------|
 
E|----------------------------------5-7-5-7-8--7b8-7b8-8--7b8-8--7b8-8-------|
B|-5-7-8-7--5-7-8-7--5-7-8-7--5-7-8------------------------------------------|
G|---------------------------------------------------------------------------|
D|---------------------------------------------------------------------------|
A|---------------------------------------------------------------------------|
E|---------------------------------------------------------------------------|
 
E|-----12-----------15-12----15-12------|-------------------------12---------|
B|-15b----15b---15b-------15b-------15b-|-15b17-15p12-------12-15----15b-15b-|
G|--------------------------------------|-------------14h16------------------|
D|--------------------------------------|------------------------------------|
A|--------------------------------------|------------------------------------|
E|--------------------------------------|------------------------------------|
 
E|-------17-19-17-19-20--19b20-20--19b20-17-19-17-19-20--19b-20-17-20--------|
B|-19-20---------------------------------------------------------------------|
G|---------------------------------------------------------------------------|
D|---------------------------------------------------------------------------|
A|---------------------------------------------------------------------------|
E|---------------------------------------------------------------------------|
 
E|-19b-20-17-19~-------------------------------------------------------------|
B|---------------------------------------------------------------------------|
G|---------------------------------------------------------------------------|
D|---------------------------------------------------------------------------|
A|---------------------------------------------------------------------------|
E|---------------------------------------------------------------------------|
 
C            D      G  D  C
  But it was only a fantasy
                 D         G   D   C
The wall was too high, as you can see
                   D              G   D     C
No matter how he tried, he could not break free
              D             Em
And the worms ate into his brain

E|----------------------------------|-------5-----5----------5-----5---| 
B|-7-----8-----8----7-----8-----8---|-5-------6-----6--5-------6-----6-| 
G|-----9---9-----9------9---9-----9-|-----7-----7----------7-----7-----| 
D|---9-------9--------9-------9-----|---7----------------7-------------|
A|----------------------------------|----------------------------------| 
E|----------------------------------|----------------------------------|

E|----------------------------------|-------5-----5----------5-----5---| 
B|-7-----8-----8----7-----8-----8---|-5-------6-----6--5-------6-----6-| 
G|-----9---9-----9------9---9-----9-|-----7-----7----------7-----7-----| 
D|---9-------9--------9-------9-----|---7----------------7-------------|
A|----------------------------------|----------------------------------| 
E|----------------------------------|----------------------------------|

     Em
Hey you
Out there on the road
Always doing what you're told
         Bm
Can you help me?

     Em
Hey you
Out there beyond the wall
Breaking bottles in the hall
         Bm
Can you help me?

E|-------------------------------------------|
B|-------------------------------------------|
G|-------------------------------------------|
D|-4-4--5-5--5-7-----------------------------|
A|-2-2--3-3--5-5-----------------------------|
E|-------------------------------------------|

D
Hey you
                                 G D C
Don't tell me there's no hope at all
 Bm             Am           Em
Together we stand, divided we fall


[Riff 1]

E|-----------------|-------7-------7-------7-----7--------------------------|
B|-7-----8-----8---|-5-------7-------7-------7------------------------------|
G|-----9---9-----9-|-----7-----7-------7-------7---7------------------------|
D|---9-------9-----|---7---------9-------9----------------------------------|
A|-----------------|--------------------------------------------------------|
E|-----------------|--------------------------------------------------------|
 
E|-----------------|-------7-----7----------7------7------------------------|
B|-7-----8-----8---|-5-------7--------7-------7-----------------------------|
G|-----9---9-----9-|-----7-----7---7------7-----7----7----------------------|
D|---9-------9-----|---7----------------9-----------------------------------|
A|-----------------|--------------------------------------------------------|
E|-----------------|--------------------------------------------------------|
 
E|-------5-----5----------5-----5---|-7-----7--5-----5--3-----3-----3-------|
B|-5-------6-----6--5-------6-----6-|-----8--------6--------5---5-------5---|
G|-----7-----7----------7-----7-----|---9--------7--------5-------5---5---5-|
D|---7----------------7-------------|---------------------------------------|
A|----------------------------------|---------------------------------------|
E|----------------------------------|---------------------------------------|
                                                        
E|---3-----3---|-------7-----7-----------5-----5---|------------------------|
B|-5---5-------|-7-------7--------5--------5-------|-7-----8-----8----------|
G|-------5---5-|-----9-----7---7------7------7---7-|-----9---9-----9--------|
D|-------------|---9----------------7--------------|---9-------9------------|
A|-------------|-----------------------------------|------------------------|
E|-------------|-----------------------------------|------------------------|
 
E|--------5------5-----------5----------------------------------------------|
B|-5--------6---------5--------6--------------------------------------------|
G|-----7------7----7-------7------------------------------------------------|
D|---7-------------------7--------------------------------------------------|
A|--------------------------------------------------------------------------|
E|--------------------------------------------------------------------------|
reproducciones 32.725
Acordes para:

    0 comentarios

    mostrar más comentarios

    ¿Conseguiste tocar?

    61 tocaron 11 aún no

    ¡Graba un vídeo tocando Hey You y envianoslo!

    00:00 / 00:00
    outros vídeos desta música
    repetir qualidade Automático
    Outros vídeos desta música
    00:00 / 00:00
    Automático
    Capítulos
    • Tocando Solo
    • Apresentação / Equipamentos
    • Configuração pedal
    • Tab 1 - 48 BPM
    • Tab 2 - 48 BPM
    • Tab 3 - 48 BPM
    • Tab 4 - 48 BPM
    • Tab 5 - 48 BPM
    • Tab 6 - 48 BPM
    • Tab 7 - 48 BPM
    • Tab 8 - 48 BPM
    • Tab 9 - 48 BPM
    • Tab 10 - 48 BPM
    • Tab 11 - 48 BPM
    • Tab 12 - 48 BPM
    • Encerramento
    OK