Cifra Club

Wish You Were Here

Pink Floyd

Cifrado: Principal (guitarra y guitarra eléctrica)
tono: G
[Intro] Em7  G  Em7  G
        Em7  A7(4)  Em7  A7(4)  G

[Riff 1]

E|------------------------------------------|
B|------------------------------------------|
G|------------------------------------------|
D|-----0-2----------------------------------|
A|-0h2--------------------------------------|
E|------------------------------------------|

[Riff 2]

E|------------------------------------------|
B|------------------------------------------|
G|-0----------------------------------------|
D|---2-0------------------------------------|
A|------------------------------------------|
E|------------------------------------------|

[Riff 3]

E|------------------------------------------|
B|------------------------------------------|
G|------------------------------------------|
D|-------0-2--------------------------------|
A|---0h2------------------------------------|
E|-3----------------------------------------|

[Riff 4]

E|------------------------------------------|
B|------------------------------------------|
G|---0--------------------------------------|
D|-2---2-0----------------------------------|
A|------------------------------------------|
E|------------------------------------------|

[Riff 3]

E|------------------------------------------|
B|------------------------------------------|
G|------------------------------------------|
D|-------0-2--------------------------------|
A|---0h2------------------------------------|
E|-3----------------------------------------|

[Riff 5]

E|------------------------------------------|
B|------------------------------------------|
G|------------------------------------------|
D|-2-0--------------------------------------|
A|-----2-0----------------------------------|
E|------------------------------------------|

[Riff 1]

E|------------------------------------------|
B|------------------------------------------|
G|------------------------------------------|
D|-----0-2----------------------------------|
A|-0h2--------------------------------------|
E|------------------------------------------|

[Riff 5]

E|------------------------------------------|
B|------------------------------------------|
G|------------------------------------------|
D|-2-0--------------------------------------|
A|-----2-0----------------------------------|
E|------------------------------------------|

[Riff 6]

E|------------------------------------------|
B|------------------------------------------|
G|------------------------------------------|
D|-----0------------------------------------|
A|-0h2--------------------------------------|
E|------------------------------------------|

[Tab - Solo 1]

Parte 1 de 4
E|---------------------------------------------------|
B|-------3--5---3------------------------------------|
G|-2h3/4------4---4p2p0------------------------------|
D|----------------------0-----0-0--------------------|
A|------------------------1/2------------------------|
E|---------------------------------------------------|

Parte 2 de 4
E|-3/5-5/3-------------------------------------------|
B|-3/5-5/3---3/5-5/3p0---3/5-5/3p0-------------------|
G|-----------2/4-4/2p0---2/4-4/2p0--4----------------|
D|----------------------------------5----------------|
A|---------------------------------------------------|
E|---------------------------------------------------|

Parte 3 de 4
E|---------------------------------------------------|
B|-------3---5-5b7r5p3---3--------3h5----------------|
G|-2h3/4---4-----------4---2~-4b6-----4b6-2~---------|
D|---------------------------------------------------|
A|---------------------------------------------------|
E|---------------------------------------------------|

Parte 4 de 4
E|---------------------------------------------------|
B|-------3---5-5b7-7r5p3-5---------------------------|
G|-2h3/4---4----------------2~-4b6r4-2---------------|
D|---------------------------------------------------|
A|---------------------------------------------------|
E|---------------------------------------------------|

[Primeira Parte]

C                           D/F#
  So, so you think you can tell
             Am/E                  G  
Heaven from hell, blue skies from pain
                      D/F#
Can you tell a green field
                   C                    Am/E 
From a cold steel rail, a smile from a veil? 
                      G
Do you think you can tell?
                      C                      D/F#     
Did they get you to trade, your heroes for ghosts
                Am/E
Hot ashes for trees
               G                              D/F#    
Hot air for a cool breeze, cold comfort for change? 
            C
Did you exchange
                       Am/E                      G
A walk on part in the war, for a lead role in a cage?

[Tab - Solo 2]

Parte 1 de 6
E|-------------------10/12-10------------------------|
B|-10b12-12-12-10b12----------10b12-12r10------------|
G|---------------------------------------------------|
D|---------------------------------------------------|
A|---------------------------------------------------|
E|---------------------------------------------------|

Parte 2 de 6
E|-------12------------------------------------------|
B|-10b12----10~-10b12r10p8---------------------------|
G|-------------------------11---7--------------------|
D|----------------------------9---9------------------|
A|---------------------------------------------------|
E|---------------------------------------------------|

Parte 3 de 6
E|-------------10-10-10-10---------------------------|
B|-------10b12-------------10b12---------------------|
G|-9-9-9---------------------------------------------|
D|---------------------------------------------------|
A|---------------------------------------------------|
E|---------------------------------------------------|

E|-10-10-10-10-10-10-10-10---------------------------|
B|-------------------------12r10p8-------------------|
G|----------------------------------9----------------|
D|---------------------------------------------------|
A|---------------------------------------------------|
E|---------------------------------------------------|

Parte 4 de 6
E|-------12------------------------------------------|
B|-12b14----14-12b14-14-14-14------------------------|
G|---------------------------------------------------|
D|---------------------------------------------------|
A|---------------------------------------------------|
E|---------------------------------------------------|

Parte 5 de 6
E|-------10-10-10-10---------------------------------|
B|-10b12-------------12----8-10-10b12r10p8-10--------|
G|-----------------------9---------------------------|
D|---------------------------------------------------|
A|---------------------------------------------------|
E|---------------------------------------------------|

Parte 6 de 6
E|-------14------------------------------------------|
B|-12b14----14r12p10-12------------------------------|
G|---------------------------------------------------|
D|---------------------------------------------------|
A|---------------------------------------------------|
E|---------------------------------------------------|

C                                  D/F#
  How I wish, how I wish you were here
             Am/E                               
We're just two lost souls swimming in a fish bowl
G                 
  Year after year
D/F#                                    
     Running over the same old ground 
C                                   Am/E
  What have we found? The same old fears
               G
Wish you were here

[Tab - Solo 3]

Parte 1 de 5
E|---------------------------------------------------|
B|--------------------------10b12-10-8---------------|
G|---7---7-9---7---7----7-9------------9---7---7-9---|
D|-9---9-----9---9---9-------------------9---9-----9-|
A|---------------------------------------------------|
E|---------------------------------------------------|

Parte 2 de 5
E|------------------10-12p10-------------------------|
B|---8---8-10-10b12----------12-10b12-12r10p8---12-12|
G|-9---9--------------------------------------9------|
D|---------------------------------------------------|
A|---------------------------------------------------|
E|---------------------------------------------------|

Parte 3 de 5
E|-------10-10-------10-10-------10-10---------------|
B|-10b12-------10b12-------10b12-------10-12-10------|
G|---------------------------------------------------|
D|---------------------------------------------------|
A|---------------------------------------------------|
E|---------------------------------------------------|

Parte 4 de 5
E|-------12-------------------10---------10----------|
B|-12b14----14r12p10--8h10b12----8h10b12-------------|
G|---------------------------------------------------|
D|---------------------------------------------------|
A|---------------------------------------------------|
E|---------------------------------------------------|

E|---------10----------------------------------------|
B|-8h10b12----12r10p8--------------------------------|
G|--------------------9------------------------------|
D|---------------------------------------------------|
A|---------------------------------------------------|
E|---------------------------------------------------|

Parte 5 de 5
E|---------------------------------------------------|
B|----8---8---8----8---8-10-10-10p8-----8------------|
G|--9---9---9----9---9--------------9-7--------------|
D|---------------------------------------------------|
A|---------------------------------------------------|
E|---------------------------------------------------|
00:00 / 00:00
Otros videos de esta canción
Repetir
Otros videos de esta canción
Composición de David Gilmour / Roger Waters
440.017 vistas
  • Simplificar cifrado
    • ½ Tono
    • A
    • Bb
    • B
    • C
    • Db
    • D
    • Eb
    • E
    • F
    • F#
    • G
    • Ab
  • Agregar a la lista

    0 comentarios

    Ver todos los comentarios
    00:00 / 00:00
    Capítulos
    • Início
    • Acordes da introdução
    • Tocando a introdução
    • Ensinando o riff 1
    • Ensinando o riff 2
    • Ensinando o riff 3
    • Ensinando o riff 4
    • Ensinando o riff 5
    • Ensinando a continuação de sequência dos riffs e r
    • Ensinando o riff 6
    • Tocando riffs e ritmos devagar
    • Acordes das bases do solos
    • Tocando a variação da base do solo
    • Ensinando ritmo da variação da base do solo
    • Acordes da primeira parte
    • Tocando a primeira parte
    • Ensinando o ritmo da primeira parte
    • Acordes e ritmo do refrão
    • Tocando o refrão
    • Tocando solo com a base
    • Ensinando solo 1 (parte 1)
    • Ensinando solo 1 (parte 2)
    • Ensinando solo 1 (parte 3)
    • Ensinando solo 1 (parte 4)
    • Tocando o solo 2 com a base
    • Ensinando o solo 2 (parte 1)
    • Ensinando o solo 2 (parte 2)
    • Ensinando o solo 2 (parte 3)
    • Ensinando o solo 2 (parte 4)
    • Ensinando o solo 2 (parte 5)
    • Ensinando o solo 2 (parte 6)
    • Dicas para fazer o solo
    • Tocando o solo 3 com base
    • Ensinando o solo 3 (parte 1)
    • Ensinando o solo 3 (parte 2)
    • Ensinando o solo 3 (parte 3)
    • Ensinando o solo 3 (parte 4)
    • Ensinando o solo 3 (parte 5)
    • Encerramento
    • Extras
    OK