Cifra Club

Wish You Were Here

Pink Floyd

Tab de bajo: Principal
Verso 1            
G|-----------------------|--------------------|------------------|-------2-2---|
D|-------5-5-5---5-------|----------5---------|------7-----------|-----2-------|
A|------------------0--2-|--3----3----3-3-----|-5------5-5---3-2-|-0-----------|
E|-3--3------------------|--------------------|------------------|-------------|

G|--------------------|--------5------------|-------2-2---|
D|-----5---5-5--------|------5---5----------|-----2-------|
A|-------5------3-4-5-|-3----------3-3--3-2-|-0-----------|
E|--3-----------------|---------------------|-------------|
                       Solo de guitarra começa aqui 
G|--------------------|-----------0---|-------4----------|------------2----|
D|------5-----------0-|-2-----0-2---2-|-0---5----------0-|-2---2--0-2---0--|
A|--------5-----0h2---|---------------|------------0h2---|-----------------|
E|--3-------3-3-------|---------------|----------3-------|-----------------|

G|--------------------|----------------|---------2---2-------|----------------|
D|------------------0-|-2--------2-0---|-------2---2-------0-|-2--------2-0---|
A|-0------------0h2---|--------------2-|-0-------------0h2---|--------------2-|
E|-----7\---3-3-------|----------------|---------------------|----------------|

G|------------------|-------------------------|-----------------------|
D|-----------7--7-7-|---------5-5-5-----------|--------5--------------|
A|-0/------7--------|---------------5-----0-2-|-3--------3-3-2-3------|
E|------------------|--3--------------3-------|-----------------------|

G|--------------------|------2-2-------|------------------------|
D|-----7--7-----7-----|----------2-----|-----------5--5---5-----|
A|-5--------5-5---3-2-|-0----------0---|-------3/5------5---3-4-|
E|--------------------|----------------|--3---------------------|

G|---------7----------|---------5-5----------|-------------|-------------------|
D|-------7------------|-------5--------------|---------2---|-----5--5--------0-|
A|-5---------5----5-4-|-3-----------3----3-2-|-0---------0-|-------------0h2---|
E|--------------------|----------------------|-------------|-3---------3-------|

G|-------------0---|-----------------------|-----------------0----|
D|-2------2-2----2-|-0-------------------0-|-2------2---2-2-----2-| 
A|-----------------|-----------------0h2---|----------------------|
E|-----------------|----3-3---3-3--3-------|----------------------|

G|-------------------------|------------------|--------------hold--------|
D|-0---------------------0-|-2------2--2-0----|---------7-7---(7)\-----0-|
A|--------5\---------0h2---|----------------2-|-0------------------0h2---|
E|--------------3--3-------|------------------|--------------------------|

G|-------------------|---------------------|-----------------|-----------------|
D|-2-----2--2-2-0----|---------------------|------5-----5----|-------5-------2-|
A|-----------------2-|-0----0-0--0--0--2-0-|--------5------5-|-----------0h2---|
E|-------------------|---------------------|-3--------3------|-3-------3-------|

Solo 2 (Outro)
G|------------------0----|-----------------------|----------------0---|
D|-2--0-2----0-0-2-----2-|-0----5--------------0-|-2------2--0-2----2-|
A|-----------------------|-----------------0h2---|--------------------|
E|-----------------------|---------3-3-0-3-------|--------------------|

G|--------------------------|--------------------|--------------------------|
D|-0----------------------0-|-2------2--0-2-0----|-----------7-7----------0-|
A|-------10\----------0h2---|------------------2-|-0------/7----------0h2---|
E|-----------0-3--0-3-------|--------------------|--------------------------|
                                                 Começa o fade
G|---------------------|----------------------9-|--------------------7--7-|
D|-2-------2--0-2-0----|--------------7-7---7---|-------------5--5--------|
A|-------------------2-|-0----------7-----------|---------3-5-------------|
E|---------------------|------------------------|-3-----------------------|

G|-----7-7-----7-7-------------|----------------0----|------------------------|
D|-5-------5-----------------0-|-2-------2--0-2----2-|-0------5-------------0-|
A|-----------------------0h2---|---------------------|------------------0h2---|
E|-----------------3--3--------|---------------------|-----------2-3--3-------|

G|------------------0----|---------------------------|----------------------|
D|-2-------2--0-2-0----2-|-0------5----------------0-|-2------0-2---2--0----|
A|-----------------------|-----------2-0-------0h2---|--------------------2-|
E|-----------------------|---------------3--3--------|----------------------|

G|---------2-------------|--------------------|---------Fade out-||
D|------------2--------0-|-2----0-2---2--0----|------------------||
A|-0------------0--0h2---|------------------2-|-0----------------||
E|-----------------------|--------------------|------------------||
reproducciones 1.149
Composição: David Gilmour / Roger Waters Colaboración y revision:
  • Hércules Santana
  • Pietra Moresco

0 comentarios

mostrar más comentarios

¿Conseguiste tocar?

8 tocaron 0 aún no

¡Graba un vídeo tocando Wish You Were Here y envianoslo!

00:00 / 00:00
outros vídeos desta música
repetir qualidade Automático
Outros vídeos desta música
00:00 / 00:00
Automático
OK