Cifra Club

Anacrônico

Pitty

Cifrado: Versão 3 (guitarra y guitarra eléctrica)
Acompaña nuestras novedades de Cifra Club en español.
¡Sigue nuestro perfil en Instagram!
tono: A
Introdução: (A G F G F E D E F E D D) 4x (A G F G F E)
e|---------------------------|--------------|  e|---------------------------|-------------|
B|---------------------------|--------------|  B|---------------------------|-------------|
G|---------------------------|--------------|  D|--------------7-9-10-9-5-7-|-------------|
D|-7-5-3--5-3-2--0-2-3-2-0-0-|-7-5-3--5-3-2-|  G|-7-5-3-5-5-2--7-9-10-9-5-7-|-7-5-3-5-5-2-|
A|-7-5-3--5-3-2--0-2-3-2-0-0-|-7-5-3--5-3-2-|  A|-7-5-3-5-5-2--5-7-8--7-5-5-|-7-5-3-5-5-2-|
D|-7-5-3--5-3-2--0-2-3-2-0-0-|-7-5-3--5-3-2-|  E|-5-3-1-3-1-0---------------|-5-3-1-3-1-0-|
 |------------4x-------------|                  |------------4x-------------|

Verso:
e|---------------------|
B|---------------------|
D|---8-----------------|
G|-9---7-9/10-7-10-7-9-|
A|---------------------|
E|---------------------|
E
É claro que somos as mesmas pessoas
F
Mas pare e perceba como seu dia-a-dia mudou
E
Mudaram os horários, hábitos, lugares
F
Inclusive as pessoas ao redor
E
São outros rostos, outras vozes
F
Interagindo e modificando você
E
E aí surgem novos valores
F
Vindos de outras vontades
E
Alguns caindo por terra
F
Pra outros poderem crescer

Refrão:
e|----------------------|----------------------------|---|
B|----------------------|----------------------------|---|
G|----------------------|----------------------------|---|
D|-7/8--9/10--7/8--9/10-|-7/8--9/10--7/8--9/10--10/9-|-8-|
A|-7/8--9/10--7/8--9/10-|-7/8--9/10--7/8--9/10--10/9-|-8-|
D|-7/8--9/10--7/8--9/10-|-7/8--9/10--7/8--9/10--10/9-|-8-|
Caem 1, 2, 3, caem 4
A terra girando não se pode parar
Caem 1, 2, 3, caem 4
A terra girando não se pode parar

Passagem: (A G F G F E D E F E D D)
e|---------------------------|--------------|  e|---------------------------|-------------|
B|---------------------------|--------------|  B|---------------------------|-------------|
G|---------------------------|--------------|  D|--------------7-9-10-9-5-7-|-------------|
D|-7-5-3--5-3-2--0-2-3-2-0-0-|-7-5-3--5-3-2-|  G|-7-5-3-5-5-2--7-9-10-9-5-7-|-7-5-3-5-5-2-|
A|-7-5-3--5-3-2--0-2-3-2-0-0-|-7-5-3--5-3-2-|  A|-7-5-3-5-5-2--5-7-8--7-5-5-|-7-5-3-5-5-2-|
D|-7-5-3--5-3-2--0-2-3-2-0-0-|-7-5-3--5-3-2-|  E|-5-3-1-3-1-0---------------|-5-3-1-3-1-0-|
 |------------2x-------------|                  |------------2x-------------|

Verso:
e|---------------------|
B|---------------------|
D|---8-----------------|
G|-9---7-9/10-7-10-7-9-|
A|---------------------|
E|---------------------|
E
Outras situações em outras circunstâncias
F
Entre uma e outras vezes se vêem os mesmos defeitos
E
Todas aquelas marcas do jeito de cada um
F
Alguns ainda caem por terra pra outros poderem crescer

Refrão:
e|----------------------|----------------------------|---|
B|----------------------|----------------------------|---|
G|----------------------|----------------------------|---|
D|-7/8--9/10--7/8--9/10-|-7/8--9/10--7/8--9/10--10/9-|-8-|
A|-7/8--9/10--7/8--9/10-|-7/8--9/10--7/8--9/10--10/9-|-8-|
D|-7/8--9/10--7/8--9/10-|-7/8--9/10--7/8--9/10--10/9-|-8-|
Caem 1, 2, 3, caem 4
A terra girando não se pode parar
Caem 1, 2, 3, caem 4
A terra girando não se pode parar

Solo:
e|-7-7-7-7-7-7-7-----------7-7-7-7-7-7-7-----------------10~-|
B|-----------------------------------------------------------|
G|-----------------3-5-3~-----------------4-5-7~-6-7-9-------|
D|-----------------------------------------------------------|
A|-----------------------------------------------------------|
E|-----------------------------------------------------------|
 |----------------------------2x-----------------------------|

Verso:
e|-7-7-7-7-7-7-7-----------7-7-7-7-7-7-7-----------------10~-|
B|-----------------------------------------------------------|
G|-----------------3-5-3~-----------------4-5-7~-6-7-9-------|
D|-----------------------------------------------------------|
A|-----------------------------------------------------------|
E|-----------------------------------------------------------|
A
Outro ciclo em diferentes fases
B
Vivendo de outra forma
A
Com outros interesses, outras ambições
B
Mais fortes, somadas com as anteriores
A
Mudança de prioridades
B
Mudança de direção
A
Alguns ainda caem por terra
B
Pra outros poderem cresce

Refrão:
e|----------------------|----------------------------|---|
B|----------------------|----------------------------|---|
G|----------------------|----------------------------|---|
D|-7/8--9/10--7/8--9/10-|-7/8--9/10--7/8--9/10--10/9-|-8-|
A|-7/8--9/10--7/8--9/10-|-7/8--9/10--7/8--9/10--10/9-|-8-|
D|-7/8--9/10--7/8--9/10-|-7/8--9/10--7/8--9/10--10/9-|-8-|
Caem 1, 2, 3, caem 4
A terra girando não se pode parar
Caem 1, 2, 3, caem 4
A terra girando não se pode parar

final: (G F G E G F)
Composición de Pitty
19 vistas
    • ½ Tono
    • A
    • Bb
    • B
    • C
    • Db
    • D
    • Eb
    • E
    • F
    • F#
    • G
    • Ab
  • Agregar a la lista

    0 comentarios

    Ver todos los comentarios

    ¿Lograste tocar?

    1 Tocaron 1 Aún no

    ¡Graba un video tocando Anacrônico y envíanoslo!

    00:00 / 00:00
    Outros vídeos desta música
    Repetir Calidad Automático
    Outros vídeos desta música
    00:00 / 00:00
    Automático
    OK