Cifra Club

Anacrônico

Pitty

Tab de bajo: Baixo-4c
Acompaña nuestras novedades de Cifra Club en español.
¡Sigue nuestro perfil en Instagram!
[Intro e verso]
G|-------------------------------------------|
D|-------------------------------------------|
A|-------------------------------------------|
D|--7-5-3-5-3-2--0-2-3-2--0-0-0--------------|

[Verso]
G|-------------------------------------------|
D|-------------------------------------------|
A|-------------------------------------------|
D|--7-5-3-5-3-0--0-2-3-2-00------------------|

- Caem um, dois, três, caem quatro...
G|-------------------------------------------|
D|-------------------------------------------|
A|-------------------------------------------|
D|--7-8-7-10-7-8-7-10-10-9-------------------|

[Solo]
G|-------------------------------------------|
D|-------------------------------------------|
A|--------5-5-3~-------3^5-------------------|
D|-0-0-0----------5^7------------------------|

G|-------------------------------------------|
D|-------------------------------------------|
A|--------5-5-3~-----3^5---------------------|
D|-0-0-0----------7--------------------------|

[Final]
G|-------------------------------------------|
D|-------------------------------------------|
A|-------------------------------------------|
D|--0-1-2-1-0-1-2/6----4----1-0--------------|
Composición de Pitty
Colaboración y revisión:
  • André Castro
4 vistas

0 comentarios

Ver todos los comentarios

¿Lograste tocar?

0 Tocaron 0 Aún no

¡Graba un video tocando Anacrônico y envíanoslo!

00:00 / 00:00
Outros vídeos desta música
Repetir Calidad Automático
Outros vídeos desta música
00:00 / 00:00
Automático
OK