Cifra Club

Anacrônico

Pitty

Tab de bajo: Versão 3
Acompaña nuestras novedades de Cifra Club en español.
¡Sigue nuestro perfil en Instagram!
G||-------------------------------------------||
D||-------------------------------------------||  (14x)
A||-------------------------------------------||
D||---6-4-2----4-2-1-----0-1-2-1---0-0-0------||

G||-------------------------------------------||
D||-------------------------------------------||
A||-------------------------------------------||
D||---6-4-2----4------------------------------||

G||-------------------------------------------||
D||-------------------------------------------||  (4x)
A||--0-1--03---01---03-----3---2~~------------||
D||-------------------------------------------||

G||-------------------------------------------||
D||-------------------------------------------||  (14x)
A||--5--5--5--5--5------3~~---0h345-----------||
D||-------------------------------------------||

G||-------------------------------------------||
D||-------------------------------------------||  (8x)
A||--0-1--03---01---03-----3---2~~------------||
D||-------------------------------------------||

G||-------------------------------------------||
D||-------------------------------------------||
A||-------------------------------------------||
D||--0-1-2-1-0-1-2/6----4----1-0--------------||
Composición de Pitty
Colaboración y revisión:
  • fernando almeida
5 vistas

0 comentarios

Ver todos los comentarios

¿Lograste tocar?

0 Tocaron 0 Aún no

¡Graba un video tocando Anacrônico y envíanoslo!

00:00 / 00:00
Outros vídeos desta música
Repetir Calidad Automático
Outros vídeos desta música
00:00 / 00:00
Automático
OK