Cifra Club

Don't Stop Me Now

Queen

Cifrado: Solo (guitarra y guitarra eléctrica)
tono: A
Solo:

E|------------------------------------------|
B|------------------------------------------|
G|-12b14~---12b14r12p10-12b14~--------------|
D|------------------------------------------|
A|------------------------------------------|
E|------------------------------------------|

E|------------------------------------------|
B|----------------------------11--10--------|
G|-b14~r12p10--12--10-9-10~-----------12--10|
D|------------------------------------------|
A|------------------------------------------|
E|------------------------------------------|

E|------------------------------------------|
B|------------------------------------------|
G|-12b14--12--b14--12--b14r12---------------|
D|----------------------------10~-----------|
A|------------------------------------------|
E|------------------------------------------|

E|------------------------------------------|
B|-11b13~---b13r11p10-11b13~--b13~----------|
G|------------------------------------------|
D|------------------------------------------|
A|------------------------------------------|
E|------------------------------------------|

E|------------------------------------------|
B|-b13r11p10--11--10----10~-----------------|
G|-------------------12---------------------|
D|------------------------------------------|
A|------------------------------------------|
E|------------------------------------------|

E|------------------------------------------|
B|-10h11-10---------------------------------|
G|-----------12--10--12b14r12--b14--12--b14-|
D|------------------------------------------|
A|------------------------------------------|
E|------------------------------------------|

E|------------------------------------------|
B|------------------------------------------|
G|-12--b14r12p10----------------------------|
D|------------------------------------------|
A|------------------------------------------|
E|------------------------------------------|

E|------------------------------------------|
B|------------------------------------------|
G|------------------------------------------|
D|------------------------------------------|
A|-12\10p8~~---10b-10-10-8------------------|
E|-------------------------10---------------|

E|------------------------------------------|
B|------------------------------------------|
G|-10h12p10----10---10h12p10----10----------|
D|----------12---------------12-------------|
A|------------------------------------------|
E|------------------------------------------|

E|------------------------------------------|
B|------------------------------------------|
G|-10h12p10----10~~-------------------------|
D|----------12------------------------------|
A|------------------------------------------|
E|------------------------------------------|

E|------------------------------------------|
B|-b15--b15--b15--b15--b15~~----------------|
G|------------------------------------------|
D|------------------------------------------|
A|------------------------------------------|
E|------------------------------------------|
00:00 / 00:00
Otros videos de esta canción
Repetir
Otros videos de esta canción
Composición de Freddie Mercury
Colaboración y revisión:
  • Vinícius Dias
1.288 vistas
    • ½ Tono
    • A
    • Bb
    • B
    • C
    • Db
    • D
    • Eb
    • E
    • F
    • F#
    • G
    • Ab
  • Agregar a la lista

    0 comentarios

    Ver todos los comentarios

    ¿Lograste tocar?

    4 Tocaron 7 Aún no

    ¡Graba un video tocando Don't Stop Me Now y envíanoslo!

    00:00 / 00:00
    Capítulos
    • Tocando solo
    • Apresentação / Equipamentos
    • Ensinando solo - Parte 1
    • Ensinando solo - Parte 2
    • Ensinando solo - Parte 3
    • Ensinando solo - Parte 4
    • Encerramento
    OK