Cifra Club

Creep

Radiohead

Tab de bajo: Versão 2
reproducciones 94
riff 1
G----------------------------|----------------------------|
D----------------------------|----------------------------|
A----------------------------|--2----2-2----2----2-2------|
E--3---33-3---33---33-3---3--|------2------2----2------2--|

G----------------------------|----------------------------|
D----------------------------|-----------------------3----|
A--3----3-3----3----3-3---2--|--3----3-3----3--5--6-------|
E------3------3----3---------|------3------3--------------|

riff 2
G-------------------------------|-------------------------------|
D-------------------------------|-------------------------------|
A-------------------------------|--2----2-2----2----------------|
E--3---33-3---33---3-3h5--3--2--|------2------2----2-3h5--3--2--|

G-------------------------------|----------------------------|
D-------------------------------|-----------------------3----|
A--3----3-3----3---3-3h5--3--2--|--3----3-3----3--5--6-------|
E------3------3-----------------|------3------3--------------|

riff 3
G-------------------------------|----------------------------|
D-------------------------------|----------------------------|
A-------------------------------|--2----2-2----2----2---2-5--|
E--3---33-3---33---3-3h5--3--2--|------2------2----2--2------|

G----------------------------|----------------------------|
D----------------------------|----------------------------|
A--3----3-3----3----3---3-5--|--3----3-3----3-------------|
E------3------3----3--3------|------3------3--------------|

outro
G----------------------------|----------------------------|
D----------------------------|----------------------------|
A----------------------------|--2----2-2----2----2-2------|
E--3----3-3----3----3-3------|----------------------------|

G----------------------------|----------------------------|
D----------------------------|----------------------------|
A--3----3-3----3----3-3------|--3----3-3----3----3-3------|
E----------------------------|----------------------------|

end
G-----------------|
D-----------------|
A----------2/5----|
E--3---5----------|

*Play like this in 2nd chorus
 riff1 > riff2 > riff3

0 comentarios

mostrar más comentarios

¿Conseguiste tocar?

0 tocaron 0 aún no

¡Graba un vídeo tocando Creep y envianoslo!

00:00 / 00:00
outros vídeos desta música
repetir qualidade Automático
Outros vídeos desta música
00:00 / 00:00
Automático
Capítulos
  • Tocando a música
  • Apresentação / Equipamentos
  • Dicas Introdução e Primeira Parte
  • Introdução
  • Primeira Parte - Parte 1 de 2
  • Primeira Parte - Parte 2 de 2
  • Dicas Refrão e Segunda Parte
  • Primeiro Refrão
  • Segunda Parte - Parte 1 de 2
  • Segunda Parte - Parte 2 de 2
  • Dicas Segundo Refrão e Terceira Parte
  • Segundo Refrão - Parte 1 de 3
  • Segundo Refrão - Parte 2 de 3
  • Segundo Refrão - Parte 3 de 3
  • Terceira Parte
  • Encerramento
  • Ficha Técnica
OK