Cifra Club

Mulher de Fases

Raimundos

Cifrado: Principal (guitarra y guitarra eléctrica)
tono: G
[Intro]

E|------------------------------------------|
B|------------------------------------------|
G|------------------------------------------|
D|------------------------------------------|
A|-7--5-----5-7--5-----5--------------------|
E|-------7----------7-----------------------|

E|------------------------------------------|
B|------------------------------------------|
G|------------------------------------------|
D|------------------------------------------|
A|-7--5-----5-7--5--------------------------|
E|-------7----------7--5--------------------|
   P.M . . . . . . .
E|------------------------------------------|
B|------------------------------------------|
G|---------------------5---7----------------|
D|---------------------5---7----------------|
A|-5-5-5-5-5-5-5-5-5---3---5----------------|
E|-3-3-3-3-3-3-3-3-3------------------------|
   P.M . . . . . . .
E|------------------------------------------|
B|------------------------------------------|
G|---------------------5---7----------------|
D|---------------------5---7----------------|
A|-5-5-5-5-5-5-5-5-5---3---5----------------|
E|-3-3-3-3-3-3-3-3-3------------------------|

E|------------------------------------------|
B|------------------------------------------|
G|------------------------------------------|
D|------------------------------------------|
A|-7--5-----5-7--5-----5--------------------|
E|-------7----------7-----------------------|

E|------------------------------------------|
B|------------------------------------------|
G|------------------------------------------|
D|------------------------------------------|
A|-7--5-----5-7--5--------------------------|
E|-------7----------7--5--------------------|

[Primeira Parte]

G5                 D5
   Que mulher ruim
              C5         E5
Jogou minhas coisas fora
                  A5
Disse que em sua cama
           C5         G5
Eu não deito mais não
               D5
A casa é minha
          C5       E5
Você que vá embora
                    A5
Já pra saia da sua mãe
                    C5
E deixa meu colchão
                A5
Ela é pró na arte
                  E5
De pentelhar e aziar
             G5
É campeã do mundo
C5
A raiva era tanta
        G5
Que eu nem reparei
       D5
Que a Lua diminuía
G5         D5           C5            E5
   A doida    tá me beijando há horas
                     A5
Disse que se for sem eu
            C5          G5
Não quer viver mais não
              D5                 C5         E5
Me diz, Deus,    o que é que eu faço agora?
                     A5
Se me olhando desse jeito
                  C5
Ela me tem na mão
             G5
Meu filho aguenta
               D5
Quem mandou você gostar

Dessa mulher de fases

[Primeiro Refrão]

G5        C5           G5
   Complicada e perfeitinha
   D5         E5
Você me apareceu
     A5             C5
Era tudo que eu queria

Estrela da sorte
G5           C5           G5
   Quando a noite ela surgia
     D5           E5
Meu bem você cresceu
       A5           C5
Meu namoro é na folhinha

Mulher de fases

[Riff 1]

   G5                 C5  D5
E|------------------------------------------|
B|------------------------------------------|
G|--------------------5---7-----------------| (4x)
D|-5--5-5-5-5-5-5-5-x-5---7-----------------|
A|-5--5-5-5-5-5-5-5-x-3---5-----------------|
E|-3--3-3-3-3-3-3-3-x-----------------------|


[Segunda Parte]

 E5
Põe fermento, põe as bombas

Qualquer coisa que aumente
     G5
E a deixe bem maior que o Sol
 E5
Pouca gente sabe que na noite
                            A5
O frio é quente e arde e eu   acendi
C5              A5
   Até sem luz dá pra te enxergar
      E5                 G5
O lençol fazendo congo-blue
   C5                 G5
É pena, eu sei, a manhã já vai miar
      D5
Se aguente, que lá vem chumbo quente

[Segundo Refrão]

G5        C5           G5
   Complicada e perfeitinha
   D5         E5
Você me apareceu
     A5             C5
Era tudo que eu queria

Estrela da sorte
G5           C5           G5
   Quando a noite ela surgia
     D5           E5
Meu bem você cresceu
       A5           C5
Meu namoro é na folhinha

Mulher de fases

[Riff 2]

E|------------------------------------------|
B|------------------------------------------|
G|--------------------5--5-5-7--------------| (4x)
D|-5--5-5-5-5-5-5-5-x-5--5-5-7--------------|
A|-5--5-5-5-5-5-5-5-x-3--3-3-5--------------|
E|-3--3-3-3-3-3-3-3-x-----------------------|

E|------------------------------------------|
B|------------------------------------------|
G|------------------------------------------|
D|------------------------------------------|
A|-7--5-----5-7--5-----5--------------------|
E|-------7----------7-----------------------|
                         G5
E|------------------------------------------|
B|------------------------------------------|
G|------------------------------------------|
D|-----------------------5------------------|
A|-7--5-----5-7--5-------5------------------|
E|-------7----------7--5-3------------------|

Complicada e perfeitinha
Você me apareceu
Era tudo que eu queria
Estrela da sorte
Quando a noite ela surgia
Meu bem você cresceu
Meu namoro é na folhinha
00:00 / 00:00
Otros videos de esta canción
Repetir
Otros videos de esta canción
Composición de Digão / Rodolfo
Colaboración y revisión:
17.078 vistas
  • Simplificar cifrado
    • ½ Tono
    • A
    • Bb
    • B
    • C
    • Db
    • D
    • Eb
    • E
    • F
    • F#
    • G
    • Ab
  • Agregar a la lista

    0 comentarios

    Ver todos los comentarios
    00:00 / 00:00
    Capítulos
    • Início
    • Tocando a Música
    • Dicas de Timbre
    • Acordes Introdução
    • Ensinando Introdução
    • Ensinando Introdução
    • Acordes Primeira Parte
    • Tocando Primeira Parte
    • Ensinando Ritmo Primeira Parte
    • Tocando Refrão
    • Ensinando Ritmo Refrão
    • Tocando Riff 1
    • Ensinando Riff 1
    • Tocando Segunda Parte
    • Ensinando Ritmo Segunda Parte
    • Tocando Riff 2
    • Ensinando Riff 2
    • Encerramento
    OK