Cifra Club

Mulher de Fases

Raimundos

Tab de bajo: Principal
Introdução

Parte 1

G|--------------------------------------------|
D|--------------------------------------------|
A|-7-5---7-5---5--7-5---7-5-------------------|
E|-----7-----7--------7-----7-----------------|

Parte 2

G|--------------------------------------------|
D|--------------------------------------------|
A|-------------------3-5------------------3-5-|
E|-3--3-3-3-3-3-3-3------3--3-3-3-3-3-3-3-----|

Parte 3

G|--------------------------------------------|
D|--------------------------------------------|
A|-7-5---7-5---5--7-5---7-5-------------------|
E|-----7-----7--------7-----7--3--------------|

Primeira parte

Que mulher ruim...sua cama...

Parte 1

G|--------------------------------------------|
D|--------------------------------------------|
A|-------------3-3--3-3-3---------------------|
E|-5-5--5-5-5-------------3-3--3-3-3----------|

G|--------------------------------------------|
D|--------------------------------------------|
A|--------------------------------------------|
E|-3-3--3-3-3---------------------------------|

Parte 2

G|--------------------------------------------|
D|--------------------------------------------|
A|-5-5--5-5-5--3-3--3-3-3--7-7--7-7-7---------|
E|--------------------------------------------|

G|--------------------------------------------|
D|--------------------------------------------|
A|-7-7--7-7-7---------------------------------|
E|-------------5-5--5-5-5--5-5--5-5-5---------|

Parte 3

G|--------------------------------------------|
D|--------------------------------------------|
A|-3-3--3-3-3--3-3--3-3-3---------------------|
E|--------------------------------------------|

G|--------------------------------------------|
D|--------------------------------------------|
A|--------------------------------------------|
E|-5-5--5-5-5--5-5--5-5-5---------------------|

Parte 4

G|--------------------------------------------|
D|--------------------------------------------|
A|--------------------------------------------|
E|-0-0--0-0-0--0-0--0-0-0--3-3--3-3-3---------|

G|--------------------------------------------|
D|--------------------------------------------|
A|-------------3-3--3-3-3--3-3--3-3-3---------|
E|-3-3--3-3-3---------------------------------|

Parte 5

G|--------------------------------------------|
D|--------------------------------------------|
A|--------------------------------------------|
E|-3-3--3-3-3--3-3--3-3-3---------------------|

G|--------------------------------------------|
D|--------------------------------------------|
A|-5-5--5-5-5--5-5--5-5-5--5-5--5-5-5---------|
E|--------------------------------------------|

G|--------------------------------------------|
D|--------------------------------------------|
A|-5-5--5-5-5---------------------------------|
E|--------------------------------------------|

Segunda parte

A doida tá me beijando há horas...

Parte 1

G|--------------------------------------------|
D|--------------------------------------------|
A|------------------------5-5--5-5-5----------|
E|-3-3--3-3-3--3-3--3-3-3---------------------|

G|--------------------------------------------|
D|--------------------------------------------|
A|-3-3--3-3-3--7-7--7-7-7--7-7--7-7-7---------|
E|--------------------------------------------|

Parte 2

G|--------------------------------------------|
D|--------------------------------------------|
A|-------------3-3--3-3-3---------------------|
E|-5-5--5-5-5-------------3-3--3-3-3----------|

G|--------------------------------------------|
D|--------------------------------------------|
A|--------------------------------------------|
E|-3-3--3-3-3---------------------------------|

Parte 3

G|--------------------------------------------|
D|--------------------------------------------|
A|-5-5--5-5-5--3-3--3-3-3--7-7--7-7-7---------|
E|--------------------------------------------|

G|--------------------------------------------|
D|--------------------------------------------|
A|-7-7--7-7-7---------------------------------|
E|-------------5-5--5-5-5--5-5--5-5-5---------|

Parte 4

G|--------------------------------------------|
D|--------------------------------------------|
A|-3-3--3-3-3--3-3--3-3-3---------------------|
E|--------------------------------------------|

G|--------------------------------------------|
D|--------------------------------------------|
A|--------------------------------------------|
E|-3-3--3-3-3--3-3--3-3-3---------------------|

Parte 5

G|--------------------------------------------|
D|--------------------------------------------|
A|-5-5--5-5-5--5-5--5-5-5--5-5--5-5-5---------|
E|--------------------------------------------|

G|--------------------------------------------|
D|--------------------------------------------|
A|-5-5--5-5-5---------------------------------|
E|--------------------------------------------|

Refrão ( tocar 2x )

Complicada e perfeitinha...

Parte 1

G|--------------------------------------------|
D|--------------------------------------------|
A|------------------------3-3--3-3-3----------|
E|-3-3--3-3-3--3-3--3-3-3---------------------|

G|--------------------------------------------|
D|--------------------------------------------|
A|-3-3--3-3-3---------------------------------|
E|------------3-3--3-3-3--3-3--3-3-3----------|

Parte 2

G|--------------------------------------------|
D|--------------------------------------------|
A|-5-5--5-5-5--5-5--5-5-5--7-7--7-7-7---------|
E|--------------------------------------------|

G|--------------------------------------------|
D|--------------------------------------------|
A|-7-7--7-7-7---------------------------------|
E|-------------5-5--5-5-5--5-5--5-5-5---------|

Parte 3

G|--------------------------------------------|
D|--------------------------------------------|
A|-3-3--3-3-3--3-3--3-3-3--3-3--3-3-3---------|
E|--------------------------------------------|

G|--------------------------------------------|
D|--------------------------------------------|
A|-3-3--3-3-3---------------------------------|
E|--------------------------------------------|

Introdução 2

Parte 1 ( tocar 2x )

G|--------------------------------------------|
D|--------------------------------------------|
A|-------------------3-5------------------3-5-|
E|-3--3-3-3-3-3-3-3------3--3-3-3-3-3-3-3-----|

Terceira parte 

Põe fermento, põe as bombas... 

Parte 1

G|--------------------------------------------|
D|--------------------------------------------|
A|-7-7--7-7-7--7-7--7-7-7--7-7--7-7-7---------|
E|--------------------------------------------|

G|--------------------------------------------|
D|--------------------------------------------|
A|-7-7--7-7-7---------------------------------|
E|--------------------------------------------|

G|--------------------------------------------|
D|--------------------------------------------|
A|--------------------------------------------|
E|-3-3--3-3-3--3-3--3-3-3--3-3--3-3-3---------|

G|--------------------------------------------|
D|--------------------------------------------|
A|--------------------------------------------|
E|-3-3--3-3-3---------------------------------|

Parte 2

G|--------------------------------------------|
D|--------------------------------------------|
A|-7-7--7-7-7--7-7--7-7-7--7-7--7-7-7---------|
E|--------------------------------------------|

G|--------------------------------------------|
D|--------------------------------------------|
A|-7-7--7-7-7---------------------------------|
E|--------------------------------------------|

G|--------------------------------------------|
D|--------------------------------------------|
A|--------------------------------------------|
E|-5-5--5-5-5--5-5--5-5-5--5-5--5-5-5---------|

G|--------------------------------------------|
D|--------------------------------------------|
A|--------------------------------------------|
E|-5-5--5-5-5---------------------------------|

Parte 3

G|--------------------------------------------|
D|--------------------------------------------|
A|-3-3--3-3-3--3-3--3-3-3---------------------|
E|------------------------5-5--5-5-5----------|

G|--------------------------------------------|
D|--------------------------------------------|
A|--------------------------------------------|
E|-5-5--5-5-5--0-0--0-0-0--0-0--0-0-0---------|

Parte 4

G|--------------------------------------------|
D|--------------------------------------------|
A|------------------------3-3--3-3-3----------|
E|-3-3--3-3-3--3-3--3-3-3---------------------|

G|--------------------------------------------|
D|--------------------------------------------|
A|-3-3--3-3-3---------------------------------|
E|------------3-3--3-3-3--3-3--3-3-3----------|

Parte 5

G|--------------------------------------------|
D|--------------------------------------------|
A|-5-5--5-5-5--5-5--5-5-5--5-5--5-5-5---------|
E|--------------------------------------------|

G|--------------------------------------------|
D|--------------------------------------------|
A|-5-5--5-5-5---------------------------------|
E|--------------------------------------------|

Refrão 2 ( tocar 2x )

Complicada e perfeitinha...

Parte 1

G|--------------------------------------------|
D|--------------------------------------------|
A|------------------------3-3--3-3-3----------|
E|-3-3--3-3-3--3-3--3-3-3---------------------|

G|--------------------------------------------|
D|--------------------------------------------|
A|-3-3--3-3-3---------------------------------|
E|------------3-3--3-3-3--3-3--3-3-3----------|

Parte 2

G|--------------------------------------------|
D|--------------------------------------------|
A|-5-5--5-5-5--5-5--5-5-5--7-7--7-7-7---------|
E|--------------------------------------------|

G|--------------------------------------------|
D|--------------------------------------------|
A|-7-7--7-7-7---------------------------------|
E|-------------5-5--5-5-5--5-5--5-5-5---------|

Parte 3

G|--------------------------------------------|
D|--------------------------------------------|
A|-3-3--3-3-3--3-3--3-3-3--3-3--3-3-3---------|
E|--------------------------------------------|

G|--------------------------------------------|
D|--------------------------------------------|
A|-3-3--3-3-3---------------------------------|
E|--------------------------------------------|

Introdução 3 ( Final )

Parte 1 ( tocar 2x )

G|--------------------------------------------|
D|--------------------------------------------|
A|-------------------3-5------------------3-5-|
E|-3--3-3-3-3-3-3-3------3--3-3-3-3-3-3-3-----|

G|--------------------------------------------|
D|--------------------------------------------|
A|--------------------------------------------|
E|-3------------------------------------------|
00:00 / 00:00
Otros videos de esta canción
Repetir
Otros videos de esta canción
Composición de Digão / Rodolfo
Colaboración y revisión:
273 vistas

0 comentarios

Ver todos los comentarios
00:00 / 00:00
Capítulos
  • Tocando a Música
  • Dicas Iniciais / Equipamentos
  • Configurações do Pedal
  • Dica sobre o uso da palheta
  • Primeira Introdução - Parte 1 de 3
  • Primeira Introdução - Parte 2 de 3
  • Primeira Introdução - Parte 3 de 3
  • Dicas e notas para a Primeira Parte
  • Primeira Parte - Parte 1 de 5
  • Primeira Parte - Parte 2 de 5
  • Primeira Parte - Parte 3 de 5
  • Primeira Parte - Parte 4 de 5
  • Primeira Parte - Parte 5 de 5
  • Dicas para a Segunda Parte
  • Segunda Parte - Parte 1 de 5
  • Segunda Parte - Parte 2 de 5
  • Segunda Parte - Parte 3 de 5
  • Segunda Parte - Parte 4 de 5
  • Segunda Parte - Parte 5 de 5
  • Dicas para o Primeiro Refrão
  • Primeiro Refrão - Parte 1 de 3
  • Primeiro Refrão - Parte 2 de 3
  • Primeiro Refrão - Parte 3 de 3
  • Dicas para Segunda Intro e Terceira Parte
  • Segunda Intro
  • Terceira Parte - Parte 1 de 5
  • Terceira Parte - Parte 2 de 5
  • Terceira Parte - Parte 3 de 5
  • Terceira Parte - Parte 4 de 5
  • Terceira Parte - Parte 5 de 5
  • Dicas para as Repetições e Terceira Introdução
  • Terceira Introdução
  • Encerramento
  • Ficha Técnica / Erros de Gravação
OK