Cifra Club

Seemann

Rammstein

Cifrado: Principal (guitarra y guitarra eléctrica)
Quer fazer aulas de música com a gente? Responda essas perguntas
e nos ajude nesse projeto! →
tono: D
(riff 1) (Sem Distorção)
E|--------------------------------------------------------------------------------
B|--------------------------------------------------------------------------------
G|--------------------------------------------------------------------------------
D|--------12---10---8---7----5---5---7---7---8---7---5----3----0--------0----0----
A|-------8--8-8--8-8-8-8-8--7-7-7-7-7-7-7-7-5-5-5-5-5-5--5-5--0-0-0-4--0--0-0-----
D|------8----8----8---8----7---7---7---7---5---5---5---5-----0---0----0----0------

(riff 1)
Komm in mein Boot
ein Sturm kommt auf
und es wird Nacht

(riff 1)
Wo willst du hin
so ganz allein
treibst du davon

(riff 1)
Wer hält deine Hand
wenn es dich
nach unten zieht

(riff 1 + riff 2 - juntos)

(riff 1) (Sem Distorção)
E|--------------------------------------------------------------------------------
B|--------------------------------------------------------------------------------
G|--------------------------------------------------------------------------------
D|--------12---10---8---7----5---5---7---7---8---7---5----3----0--------0----0----
A|-------8--8-8--8-8-8-8-8--7-7-7-7-7-7-7-7-5-5-5-5-5-5--5-5--0-0-0-4--0--0-0-----
D|------8----8----8---8----7---7---7---7---5---5---5---5-----0---0----0----0------

(riff 2) (com distorção)
E|-----------------------------------------------
B|-----------------------------------------------
G|-----------------------------------------------
D|---11-11-11-11-11-11-11-11...9-9-9-9-9-9-9-9...
A|---11-11-11-11-11-11-11-11...9-9-9-9-9-9-9-9...
D|---11-11-11-11-11-11-11-11...9-9-9-9-9-9-9-9...

E|---------------------------------------
B|---------------------------------------
G|---------------------------------------
D|---7-7-7-7-7-7-7-7...-6-6-6-6-6-6-6-6..
A|---7-7-7-7-7-7-7-7...-6-6-6-6-6-6-6-6..
D|---7-7-7-7-7-7-7-7...-6-6-6-6-6-6-6-6..

(riff 1)
Wo willst du hin
so uferlos
die kalte See

(riff 1)
Komm in mein Boot
der Herbstwind hält
die Segel straff

(riff 1 + riff 2 - juntos 1x)

E|-----------------------------------------------
B|-----------------------------------------------
G|-----------------------------------------------
D|---11-11-11-11-11-11-11-11...9-9-9-9-9-9-9-9...
A|---11-11-11-11-11-11-11-11...9-9-9-9-9-9-9-9...
D|---11-11-11-11-11-11-11-11...9-9-9-9-9-9-9-9...
     Jetzt stehst du da an der Laterne

E|---------------------------------------
B|---------------------------------------
G|---------------------------------------
D|---7-7-7-7-7-7-7-7...-6-6-6-6-6-6-6-6..
A|---7-7-7-7-7-7-7-7...-6-6-6-6-6-6-6-6..
D|---7-7-7-7-7-7-7-7...-6-6-6-6-6-6-6-6..
     it Tränen          im Gesicht

E|-----------------------------------------------
B|-----------------------------------------------
G|-----------------------------------------------
D|---11-11-11-11-11-11-11-11...9-9-9-9-9-9-9-9...
A|---11-11-11-11-11-11-11-11...9-9-9-9-9-9-9-9...
D|---11-11-11-11-11-11-11-11...9-9-9-9-9-9-9-9...
     das Tageslicht fällt auf die Seite

E|---------------------------------------
B|---------------------------------------
G|---------------------------------------
D|---7-7-7-7-7-7-7-7.........-6-6-6-6-6-6-6-6..
A|---7-7-7-7-7-7-7-7.........-6-6-6-6-6-6-6-6..
D|---7-7-7-7-7-7-7-7.........-6-6-6-6-6-6-6-6..
    der Herbstwind fegt die Strasse leer

E|-----------------------------------------------
B|-----------------------------------------------
G|-----------------------------------------------
D|---11-11-11-11-11-11-11-11...9-9-9-9-9-9-9-9...
A|---11-11-11-11-11-11-11-11...9-9-9-9-9-9-9-9...
D|---11-11-11-11-11-11-11-11...9-9-9-9-9-9-9-9...
     Jetzt stehst du da an der Laterne
E|---------------------------------------
B|---------------------------------------
G|---------------------------------------
D|---7-7-7-7-7-7-7-7...-6-6-6-6-6-6-6-6..
A|---7-7-7-7-7-7-7-7...-6-6-6-6-6-6-6-6..
D|---7-7-7-7-7-7-7-7...-6-6-6-6-6-6-6-6..
     hast Tränen        im Gesicht
E|-----------------------------------------------
B|-----------------------------------------------
G|-----------------------------------------------
D|---11-11-11-11-11-11-11-11...9-9-9-9-9-9-9-9...
A|---11-11-11-11-11-11-11-11...9-9-9-9-9-9-9-9...
D|---11-11-11-11-11-11-11-11...9-9-9-9-9-9-9-9...
     das Abendlicht verjagt die Schatten

E|---------------------------------------------------------
B|---------------------------------------------------------
G|---------------------------------------------------------
D|---7-7-7-7-7-7-7-7...........-6-6-6-6-6-6-6-6.....2~~~2~~
A|---7-7-7-7-7-7-7-7...........-6-6-6-6-6-6-6-6.....2~~~2~~
D|---7-7-7-7-7-7-7-7...........-6-6-6-6-6-6-6-6.....2~~~2~~
     die Zeit steht still und es wird Herbst

(riff 1)
Komm in mein Boot
die Sehnsucht wird
der Steuermann

(riff 1)
Komm in mein Boot
der beste Seemann
war doch ich

E|-----------------------------------------------
B|-----------------------------------------------
G|-----------------------------------------------
D|---11-11-11-11-11-11-11-11...9-9-9-9-9-9-9-9...
A|---11-11-11-11-11-11-11-11...9-9-9-9-9-9-9-9...
D|---11-11-11-11-11-11-11-11...9-9-9-9-9-9-9-9...
     Jetzt stehst du da an der Laterne

E|---------------------------------------
B|---------------------------------------
G|---------------------------------------
D|---7-7-7-7-7-7-7-7...-6-6-6-6-6-6-6-6..
A|---7-7-7-7-7-7-7-7...-6-6-6-6-6-6-6-6..
D|---7-7-7-7-7-7-7-7...-6-6-6-6-6-6-6-6..
     it Tränen          im Gesicht

E|-----------------------------------------------
B|-----------------------------------------------
G|-----------------------------------------------
D|---11-11-11-11-11-11-11-11...9-9-9-9-9-9-9-9...
A|---11-11-11-11-11-11-11-11...9-9-9-9-9-9-9-9...
D|---11-11-11-11-11-11-11-11...9-9-9-9-9-9-9-9...
     das Feuer nimmst du von der Kerze

E|------------------------------------------------
B|------------------------------------------------
G|------------------------------------------------
D|---7-7-7-7-7-7-7-7...........-6-6-6-6-6-6-6-6...
A|---7-7-7-7-7-7-7-7...........-6-6-6-6-6-6-6-6...
D|---7-7-7-7-7-7-7-7...........-6-6-6-6-6-6-6-6...
     die Zeit steht still und es wird Herbst

E|-----------------------------------------------
B|-----------------------------------------------
G|-----------------------------------------------
D|---11-11-11-11-11-11-11-11...9-9-9-9-9-9-9-9...
A|---11-11-11-11-11-11-11-11...9-9-9-9-9-9-9-9...
D|---11-11-11-11-11-11-11-11...9-9-9-9-9-9-9-9...
     Sie sprachen nur von deiner Mutter

E|-------------------------------------------
B|-------------------------------------------
G|-------------------------------------------
D|---7-7-7-7-7-7-7-7.....-6-6-6-6-6-6-6-6...
A|---7-7-7-7-7-7-7-7.....-6-6-6-6-6-6-6-6...
D|---7-7-7-7-7-7-7-7.....-6-6-6-6-6-6-6-6...
     so gnadenlos ist nur die Nacht

E|-----------------------------------------------
B|-----------------------------------------------
G|-----------------------------------------------
D|---11-11-11-11-11-11-11-11...9-9-9-9-9-9-9-9...
A|---11-11-11-11-11-11-11-11...9-9-9-9-9-9-9-9...
D|---11-11-11-11-11-11-11-11...9-9-9-9-9-9-9-9...
       am Ende bleib ich doch alleine

E|---------------------------------------------------------
B|---------------------------------------------------------
G|---------------------------------------------------------
D|---7-7-7-7-7-7-7-7...........-6-6-6-6-6-6-6-6.....2~~~~~2~~~~
A|---7-7-7-7-7-7-7-7...........-6-6-6-6-6-6-6-6.....2~~~~~2~~~~
D|---7-7-7-7-7-7-7-7...........-6-6-6-6-6-6-6-6.....2~~~~~2~~~~
     die Zeit steht still     und mir ist kalt.....kalt..kalt...

(fim)
E|-------------------------------------------------------------------------
B|-------------------------------------------------------------------------
G|-------------------------------------------------------------------------
D|--------12---10---8---7----5---5---7---7---8---7---5----3----0-----------
A|-------8--8-8--8-8-8-8-8--7-7-7-7-7-7-7-7-5-5-5-5-5-5--5-5--0-0----------
D|------8----8----8---8----7---7---7---7---5---5---5---5-----0---0--0------
Composición de Rammstein
Colaboración y revisión:
  • Marcio Melo
1.659 vistas
    • ½ Tono
    • A
    • Bb
    • B
    • C
    • Db
    • D
    • Eb
    • E
    • F
    • F#
    • G
    • Ab
  • Agregar a la lista

    0 comentarios

    Ver todos los comentarios

    ¿Lograste tocar?

    3 Tocaron 1 Aún no

    ¡Graba un video tocando Seemann y envíanoslo!

    00:00 / 00:00
    Outros vídeos desta música
    Repetir Calidad Automático
    Outros vídeos desta música
    00:00 / 00:00
    Automático
    OK