Cifra Club

Aluga-se

Raul Seixas

Cifrado: Versão 3 (guitarra y guitarra eléctrica)
tono: F
(riff inicial)
------------
------------
------------
------------
-4-5-6-7----
-2-3-4-5----

-8p7p5----------------------|
------8p7p5-----------------|
-----------8p7p5------------|  (riff 1)
----------------7-7b/\-5-5~~|
------------------------7---|
----------------------------|

----5--5--------------------|
---5-8b-8b------------------|
-7b--------5h7p5-5~~--------|  (riff 2)
----------------7-----------|
----------------------------|
----------------------------|

------------------------------15-----------------|
------14----15b/\-13-15p13-15b-15b\-13-15b/~~----|
-12/14--15---------------------------------------| (riff 3)
-------------------------------------------------|
-------------------------------------------------|
-------------------------------------------------|

---20b/\--17--17--------------------|
-17---------20--20-17-20b-20b-------|
------------------------------17~~~~| (riff 4)
------------------------------------|
------------------------------------|
------------------------------------|
00:00 / 00:00
Otros videos de esta canción
Repetir
Otros videos de esta canción
Composición de Claudio Roberto / Raul Seixas
Colaboración y revisión:
  • Fernando Sonntag
19 exhibiciones
  • Simplificar cifrado
    • ½ Tono
    • A
    • Bb
    • B
    • C
    • Db
    • D
    • Eb
    • E
    • F
    • F#
    • G
    • Ab
  • Agregar a la lista
    00:00 / 00:00
    OK