Cifra Club

Gitá

Raul Seixas

Cifrado: Versão 3 (guitarra y guitarra eléctrica)
tono: E
(intro)
E|---------------------------------------------------------|
B|---------------------------------------------------------|
G|---------------------------------------------------------|
D|----------------7h9p7-7-7h9------------------------------|
A|---7-7-7-7--5-5----------------7-7---7-7---7-7---7-7--7/-|
E|------7---7-----------------------5h7---5h7---5h7--------|

(verso 1)
E|---------------------------------------------------------|
B|---------------------------------------------------------|
G|---------------------------------------------------------|
D|---------------------------------------------------------|
A|----7-7-7--9-9-9-------7-7-7-11-11-11--------9-9-9-------|
E|-----------------7-7-7----------------9-9-9--------7-7-7-|          
 E                F#m
Às vezes você me pergunta 
         B7                 E         
Por que é que eu sou tão calado      
     G#7                C#m           
Não falo de amor quase nada          
    F#7                  B7
Nem fico sorrindo ao teu lado

(verso 2)
E|---------------------------------------------------------|
B|---------------------------------------------------------|
G|---------------------------------------------------------|
D|---------------------------------------------------------|
A|---------------------------------------------------------|
E|-8-8-8-7-7-7-8-8-8-7-7-7-8-8-8-7-7-7-8-8-8-7-7-7-11-11-11|
  C                    B7
Você pensa em mim toda hora          (2ª estrofe)
    C                  B7             
Me come, me cospe, me deixa         
     C             B7                 
Talvez você não entenda              
    C                   B7
Mas hoje eu vou lhe mostrar
E|--------------------|
B|--------------------|
G|--------------------|
D|--------------------|
A|-7-7--6-6--4-4--2-2-|
E|--------------------|

(verso 3)
E|---------------------------------------------------------|
B|---------------------------------------------------------|
G|---------------------------------------------------------|
D|---------------------------------------------------------|
A|------7-7h9-7-4-----7-7h9-7-4-----7-7h9-7-4-5-5-5-7-7-7--|
E|5-5-5----------5-5-5---------5-5-5-----------------------|
    A               E               
Eu sou a luz das estrelas            
     A             E                  
Eu sou a cor do luar                 
    A               E                
Eu sou as coisas da vida
    D              E
Eu sou o medo de amar

(verso 4)
E|---------------------------------------------------------|
B|---------------------------------------------------------|
G|---------------------------------------------------------|
D|---------------------------------------------------------|
A|-----7-7h9-7-4-----7-7h9-7-4-----7-7h9-7-4-5-5-----7-7-7-|
E|5-5-5---------5-5-5---------5-5-5-------------5-5-5------|
     A             E                 
Eu sou o medo do fraco               
    A               E                 
 A força da imaginação                
   A            E                    
O blefe do jogador
    D       A       E
Eu sou, eu fui, eu vou

(verso 5)
E|---------------------------------------------------------|
B|---------------------------------------------------------|
G|---------------------------------------------------------|
D|---------------------------------------------------------|
A|-----7-7h9-7-4-----7-7h9-7-4-----7-7h9-7-4-5-5-5-7-7-7---|
E|5-5-5---------5-5-5---------5-5-5------------------------|
     A             E                  
Eu sou o seu sacrifício              
    A               E                 
 A placa de contra-mão                
   A                    E            
O sangue no olhar do vampiro
     D              E
E as juras de maldição

(verso 6)
E|---------------------------------------------------------|
B|---------------------------------------------------------|
G|---------------------------------------------------------|
D|---------------------------------------------------------|
A|-----7h9-7-4-----7-7h9-7-4-----7-7h9-7-4-5-5-5-----7-7-7-|
E|5-5-5-------5-5-5---------5-5-5---------------5-5-5------|
     A               E                
Eu sou a vela que acende            
     A                E               
Eu sou a luz que se apaga           
    A               E                
Eu sou a beira do abismo
    D    A        E
Eu sou o tudo e o nada

(verso 7)
E|---------------------------------------------------------|
B|---------------------------------------------------------| 
G|---------------------------------------------------------|
D|---------------------------------------------------------|
A|7-7-7-9-9-9-----7-7-7-11-11-11------9-9-9----------------|
E|-----------7-7-7--------------9-9-9-------7-7-7----------|
                    F#m              
Por que você me pergunta            
    B7                     E          
Perguntas não vão lhe mostrar       
    G#7             C#m              
Que eu sou feito da terra
   F#7                B7
Do fogo, da água e do ar

(verso 8)
E|---------------------------------------------------------|
B|---------------------------------------------------------|
G|---------------------------------------------------------|
D|---------------------------------------------------------|
A|---------------------------------------------------------|
E|8-8-8--7-7-7-8-8-8-7-7-7-8-8-8-7-7-7-8-8-8-7-7-7-11-11-11|
   C              B7                  
Você me tem todo dia                 
         C                 B7         
Mas não sabe se é bom ou ruim       
     C                      B7       
Mas saiba que eu estou em você
      C              B7
Mas você não está em mim
E|--------------------|
B|--------------------|
G|--------------------|
D|--------------------|
A|-7-7--6-6--4-4--2-2-|
E|--------------------|

(verso 9)
E|---------------------------------------------------------|
B|---------------------------------------------------------|
G|---------------------------------------------------------|
D|---------------------------------------------------------|
A|-----7-7h9-7-4-----7-7h9-7-4-----7-7h9-7-4-5-5-5---7-7-7-|
E|5-5-5---------5-5-5---------5-5-5------------------------|
     A                  E          
Das telhas eu sou o telhado          
  A             E                   
A pesca do pescador                  
   A              E                  
A letra A tem meu nome
    D                 E
Dos sonhos eu sou o amor

(verso 10)
E|---------------------------------------------------------|
B|---------------------------------------------------------|
G|---------------------------------------------------------|
D|---------------------------------------------------------| 
A|-----7-7h9-7-4-----7-7h9-7-4-----7h9-7-4-5-5-5-----7-7-7-|
E|5-5-5---------5-5-5---------5-5-5-------------5-5-5------|
     A            E                 
Eu sou a dona de casa                
     A                E               
Nos pegue-pagues do mundo           
    A               E                
Eu sou a mão do carrasco
    D      A         E
Sou raso, largo, profundo

(verso 11)
E|---------------------------------------------------------|
B|---------------------------------------------------------|
G|---------------------------------------------------------|
D|---------------------------------------------------------|
A|-----7-7h9-7-4-----7-7h9-7-4-----7-7h9-7-4-5-5-5-7-7-7---|
E|5-5-5---------5-5-5---------5-5-5------------------------|
     A             E                 
Eu sou a mosca da sopa              
      A            E                  
 E o dente do tubarão                 
    A              E                 
Eu sou os olhos do cego
       D           E
E a cegueira da visão

(verso 12)
E|---------------------------------------------------------|
B|---------------------------------------------------------|
G|---------------------------------------------------------|
D|---------------------------------------------------------|
A|-----7-7h9-7-4-----7-7h9-7-4-----7-7h9-7-4-5-5-5----7-7-7|
E|5-5-5---------5-5-5---------5-5-5---------------5-5------|
         A               E         
Mas eu sou o amargo da língua        
    A              E                  
 A mãe, o pai e o avô                 
  A                    E             
O filho que ainda não veio
   D         A       E
O início, o fim e o meio(2x)

           D         A       E        (Última Parte)
Eu sou o início, o fim e o meio(2x)  
E|-------------------|
B|-------------------|
G|-------------------|
D|-------------------|
A|-5-5-5-------7-7-7-|
E|-------5-5-5-------|
00:00 / 00:00
Otros videos de esta canción
Repetir
Otros videos de esta canción
Composición de Paulo Coelho / Raul Seixas
Colaboración y revisión:
  • Lucas. Jardim.
332 exhibiciones
    • ½ Tono
    • A
    • Bb
    • B
    • C
    • Db
    • D
    • Eb
    • E
    • F
    • F#
    • G
    • Ab
  • Agregar a la lista
    00:00 / 00:00
    Capítulos
    • Tocando a música
    • Dicas Iniciais / Equipamentos
    • Acordes da música
    • Ritmo da música
    • Encerramento
    • Ficha Técnica
    OK