Cifra Club

Gitá

Raul Seixas

Tab de bajo: Principal
Intro:
G|------------------------------------------------------|
D|------------------7h9p7-7-7---------------------------|
A|---7-7---7-7---5-5------------7-7---7-7---7-7---7-7---|
E|------7h9---7h9------------5h7---7h9---7h9---7h9---7h9|

1ª estrofe:
G|---------------------------------------------------------|
D|---------------------------------------------------------|
A|----777-999-----777-11ª11ª11ª-----999--------------------|
E|------------777---------------999-----777----------------|

2ª estrofe:
G|---------------------------------------------------------|
D|---------------------------------------------------------|
A|---------------------------------------------------------|
E|----888-777-888-777-888-777-888-777-11ª11ª11ª------------|

Intervalo rápido:
G|99---------|
D|---11------|
A|------11-77|
E|-----------|

3ª estrofe:
G|---------4h6-4-----4h6-4-----4h6-4------------------|
D|--------------6---------6---------6-----------------|
A|--------7---------7---------7------555-777----------|
E|----555--------555-------555------------------------|

4ª estrofe:
G|---------4h6-4-----4h6-4-----4h6-4------------------|
D|--------------6---------6---------6-----------------|
A|--------7---------7---------7------555-----777------|
E|----555--------555-------555-----------555----------|

5ª estrofe:
G|---------4h6-4-----4h6-4-----4h6-4------------------|
D|--------------6---------6---------6-----------------|
A|--------7---------7---------7------555-777----------|
E|----555--------555-------555------------------------|

6ª estrofe:
G|---------4h6-4-----4h6-4-----4h6-4------------------|
D|--------------6---------6---------6-----------------|
A|--------7---------7---------7------555-----777------|
E|----555--------555-------555-----------555----------|

7ª estrofe:
G|---------------------------------------------------------|
D|---------------------------------------------------------|
A|----777-999-----777-11ª11ª11ª-----999--------------------|
E|------------777---------------999-----777----------------|

8ª estrofe:
G|---------------------------------------------------------|
D|---------------------------------------------------------|
A|---------------------------------------------------------|
E|----888-777-888-777-888-777-888-777-11ª11ª11ª------------|

Intervalo rápido:
G|99---------|
D|---11------|
A|------11-77|
E|-----------|

9ª estrofe:
G|---------4h6-4-----4h6-4-----4h6-4------------------|
D|--------------6---------6---------6-----------------|
A|--------7---------7---------7------555-777----------|
E|----555--------555-------555------------------------|

10ª estrofe:
G|---------4h6-4-----4h6-4-----4h6-4------------------|
D|--------------6---------6---------6-----------------|
A|--------7---------7---------7------555-----777------|
E|----555--------555-------555-----------555----------|

11ª estrofe:
G|---------4h6-4-----4h6-4-----4h6-4------------------|
D|--------------6---------6---------6-----------------|
A|--------7---------7---------7------555-777----------|
E|----555--------555-------555------------------------|

12ª estrofe:
G|---------4h6-4-----4h6-4-----4h6-4------------------|
D|--------------6---------6---------6-----------------|
A|--------7---------7---------7------555-----777------|
E|----555--------555-------555-----------555----------|

Última Parte:
G|------------------|
D|------------------|
A|-555-----777------|
E|-----555----------|
00:00 / 00:00
Otros videos de esta canción
Repetir
Otros videos de esta canción
Composición de Paulo Coelho / Raul Seixas
Colaboración y revisión:
  • Lucas Pereira
  • Lucas. Jardim.
119 exhibiciones
00:00 / 00:00
OK