Cifra Club

Aprenda

Isang Bandila

Rivermaya

Tablatura: Versão 2 (guitarra)
tono: C
Tabber: alfonz___
Email Ad: *
Tuning: Standard

Intro:

e|--------12----15-------12-------12----17-------12-|
B|-----15-------------15-------15-------------15----|
G|--14-------14----14-------14-------14----14-------| 4x
D|--------------------------------------------------|
A|--------------------------------------------------|
E|--------------------------------------------------|

then...
e|----------------------|
B|----------------------|
G|----------------------| 3x
D|--7--7--7-5-7-8-5-----| 
A|--7--7--7-5-7-8-5-----|
E|--5--5--5-3-5-6-3-----|  

e|----------------------|
B|----------------------|
G|-5-5-5-5--------------|
D|-5-5-5-5-2-2-2-2------|
A|-3-3-3-3-2-2-2-2------|
E|---------0-0-0-0------|

e|----------------------|
B|----------------------|
G|----------------------| 3x
D|--7--7--7-5-7-8-5-----| 
A|--7--7--7-5-7-8-5-----|
E|--5--5--5-3-5-6-3-----|  

e|----------------------|
B|----------------------|
G|-5-5-5-5--------------|
D|-5-5-5-5-2-6----------|
A|-3-3-3-3-2-6----------|
E|---------0-4----------|


VERSE:
  PM
e|-------------------------------------------------|
B|-------------------------------------------------|
G|-----------4-4-----4-4-----4-4-------------------|
D|--------7------5-5-----5-5-----5-5---------------|
A|------7------------------------------------------|
E|--5-5--------------------------------------------|
                             WOAH OHH!!!

e|-------------------------------------------------|
B|-------------------------------------------------|
G|-----------4-4-----4h5p4-2-4-2-0-----------------|
D|--------7------5-5-------------------------------|
A|------7------------------------------------------|
E|--5-5--------------------------------------------|
                             WOAH OH!!!

repeat (from PM)

VERSE 1:
do the verse riffs...

Wag kang mabahala sa
Kahol ng mga aso
Ligtas ang pag asang nakasakay
Sa ating mga palad at balikat
Wag mong patulan wag mong sakyan
Ang mga talangka
Panis ang angas sa respeto't
Pagpapakumbaba


REFRAIN:

e|--------12----15-------12-------12----17-------12-|
B|-----15-------------15-------15-------------15----|
G|--14-------14----14-------14-------14----14-------| 4x
D|--------------------------------------------------|
A|--------------------------------------------------|
E|--------------------------------------------------|

then may lead: e|---15~-8~-12~------|
               B|-------------------|
               G|-------------------|
               D|-------------------| 

   walang matayog na pangarap
   sa bayang may sipag at tiyaga


CHORUS:


e|------0---------3--------5----------------|
B|--------1---------3--------6-------0h1----|
G|----0---------0-------------------2---2---|
D|-----------------------7---------2--------| 
A|--3------------------5---------0----------|
E|------------3-----------------------------|
   isang ugat          isang dugo


e|------0---------3--------0----------------|
B|--------1---------3--------1--------------|
G|----0---------0--------2-----------0h2----|
D|----------------------2-----------3---3---| 
A|--3------------------0-----------3--------|
E|------------3------------------1----------|
    isang pangalan     pilipino


e|------0---------3--------5----------------|
B|--------1---------3--------6-------0h1----|
G|----0---------0-------------------2---2---|
D|-----------------------7---------2--------| 
A|--3------------------5---------0----------|
E|------------3-----------------------------|
   isang tadhanang         lalakbayin

e|------0---------3-----------|
B|--------1---------3---------|
G|--------------0-------------|
D|----2-----------------------| 
A|--3-------------------------|
E|------------3---------------|
    isang panata

e|------------------|
B|------------------|
G|------------------|
D|--7-7-7-7-3-3-3-3-| 
A|--7-7-7-7-3-3-3-3-|
E|--5-5-5-5-1-1-1-1-|
   isang bandila!


   (let ring)
e|--------|
B|--------|
G|--------|
D|--7*----| 
A|--7*----|
E|--5*----|

  PM
e|-------------------------------------------------|
B|-------------------------------------------------|
G|--4-4-----4-4-----4-4-----4-4--------------------|
D|------5-5-----5-5-----5-5-----5-5----------------| 
A|-------------------------------------------------|
E|-------------------------------------------------|
                whoah ohh!!

e|-------------------------------------------------|
B|-------------------------------------------------|
G|--4-4-----4-4-----4h5p4-2-4-2-0------------------|
D|------5-5-----5-5--------------------------------| 
A|-------------------------------------------------|
E|-------------------------------------------------|

VERSE 2: (repeat the 2 tabs above for the verse)

Pekeng bayani
Pekeng paninindigan
SUbukan naman nating
Pagtulung tulungan
Paglayang ating minimithi

REFRAIN:

e|--------12----15-------12-------12----17-------12-|
B|-----15-------------15-------15-------------15----|
G|--14-------14----14-------14-------14----14-------| 4x
D|--------------------------------------------------|
A|--------------------------------------------------|
E|--------------------------------------------------|

       Lead:   e|---15~-8~-12~------|
               B|-------------------|
               G|-------------------|
               D|-------------------| 

Hindi alamat 
Hindi konsepto
Ang bayanihang minana mo        

CHORUS:

[Notes for chorus:]

Guitar 1: one strum each chord above the tab, POWERCHORDS
Guitar 2: plucking
       
    C         G        Dm        Am
e|------0---------3--------5----------------|
B|--------1---------3--------6-------0h1----|
G|----0---------0-------------------2---2---|
D|-----------------------7---------2--------| 
A|--3------------------5---------0----------|
E|------------3-----------------------------|
   isang ugat          isang dugo

    C         G         Am       F
e|------0---------3--------0----------------|
B|--------1---------3--------1--------------|
G|----0---------0--------2-----------0h2----|
D|----------------------2-----------3---3---| 
A|--3------------------0-----------3--------|
E|------------3------------------1----------|
    isang pangalan     pilipino

    C         G         Dm       Am
e|------0---------3--------5----------------|
B|--------1---------3--------6-------0h1----|
G|----0---------0-------------------2---2---|
D|-----------------------7---------2--------| 
A|--3------------------5---------0----------|
E|------------3-----------------------------|
   isang landas na            tatahakin

    C         G         Am       F 
    • ½ Tono
    • A
    • Bb
    • B
    • C
    • Db
    • D
    • Eb
    • E
    • F
    • F#
    • G
    • Ab
  • Adicionar à lista

    0 comentarios

    Ver todos os comentários

    ¿Conseguiste tocar?

    0 Tocaram 0 Ainda não

    Grave um vídeo tocando Isang Bandila e nos envie!

    00:00 / 00:00
    outros vídeos desta música
    repetir qualidade Automático
    Outros vídeos desta música
    00:00 / 00:00
    Automático
    OK