Cifra Club

Aprenda

Panahon Na Naman

Rivermaya

Tab de bajo: Versão 2
Date Tabbed:May,2007
Guitar Tabber:Ryan Manongdo/17/m/Montalban Rizal
              No_F*(Friendster&YM)

For your questions or suggestions,just post in Friendster comments,PM or mail me.

Bass Guitar needed to play this tab....

*:
/ - slide
h - hammer-on

*:Standard(Normal)

Verse:Bass Enter
G|-12-11-9-7-----------------------------------------|
D|---------------------------------------------------|
A|----------------33-3----33--77--55-5/7-5-33----33--|
E|-------------33------33----------------------3-----|

-----------------------------------------|
-----------------------------------------|
----33-3----33---77--55-5/7-5--3~---33---|
-33------33------------------------------|

Pre-Chorus:
G|-------------------------------|
D|-------------------------------| 2x
A|-55-7/9-10--33-3/5-3-----------| Then
E|----------------------33-0-33--|

--------------------------------------------------|
--------------------------------------------------|
-55-7/9-10---33-3/5-3---7---55-5/7-5--3~-----3~---|
-----------------------------------------3h5------|

Chorus:
G|------------------------------------------------------------------------------------|
D|------12/14-12-------12/14-12------12/14-12-------12/14-12--------------------------|
A|-1010-------------------------------------------------------------------------------|
E|----------------1414----------1212-----------1010------------88--1111--1313--1515---|

--------------------------------------------------------------------------------------------12-11-8-7---|
------12/14-12-------12/14-12------12/14-12-------12/14-12----------------------------------------------|
-1010--------------------------------------------------------------------------------10~----------------|
----------------1414----------1212-----------1010------------88--11~--13~--15~----10--------------------|


G|------------------------------------------|
D|------------------------------------------|
A|----3~------3~---7~--55-5/7-5--3~----33---|
E|-3~-----3~-------------------------3------|

Bridge:
G|----7-------7----------------------------------------------------|
D|-55---5--44---4--------------------------------------------------|
A|-----------------77---7---55---5---33---3--66-88--10~-----1010~--|
E|--------------------7--------5--------3----------------10--------|

G|----7-------7------------------------------------------|
D|-55---5--44---4--------------5-4-----------------------|
A|-----------------77---7---55------33---3--66-88--10~---|
E|--------------------7----------------3-----------------|

G|--------------------12~---11~---9~---7~---5~----8888888----88888------|
A|----------------------------------------------------------------------|
E|--No-Bass-------------------------------------------------------------|

Outro Chorus:Play Bridge

End...

0 comentarios

Ver todos os comentários

¿Conseguiste tocar?

0 Tocaram 0 Ainda não

Grave um vídeo tocando Panahon Na Naman e nos envie!

00:00 / 00:00
outros vídeos desta música
repetir qualidade Automático
Outros vídeos desta música
00:00 / 00:00
Automático
OK