Cifra Club

Nada Em Vão

Rodrigo Amarante

Tablatura: Principal (guitarra)
Já pensou em usar uma coleção de roupas do Cifra Club? Responda as perguntas abaixo e nos ajude nessa missão! →
tono: D
Riff:
E|-5------------------------------|
B|----5--3-5----------------------|
G|------------4--2-4--------------|
D|--------------------4--2-2---0--|
A|--------------------------------|
E|--------------------------------|

Introdução: Riff 2x

  D9(6)   G6   D9(6)   G6    D9(6)  G6   D9(6) G6
Nananananana, Nananananana, Nananananana Ooooooo

 ( D9(6)  G6 )
Nada em vão, no espaço entre eu e você
No silêncio um grito. O sim e o não
Eis então, que o pedaço de mim que é só teu
É intento sem tanto intenção

 Em        A    G#  G
Quando eu vejo você
 Em         A
Me olhando assim
 Em      A
Vendo em mim
 Em      A
O que eu vejo em ti

(Riff 2x)

  D9(6)   G6   D9(6)   G6    D9(6)  G6   D9(6) G6
Nananananana, Nananananana, Nananananana Ooooooo

 (D9(6)  G6)
Qual razão.É medir o imenso da sede
Se cede o senso, à sensação
Ilusão. É a veste que faz-te volver
Que me envolve e verte. Afeto e afã

 Em        A    G#  G
Quando eu vejo você
 Em         A
Me olhando assim
 Em      A
Vendo em mim
 Em      A
O que eu vejo em ti

Final: D9(6)  G6 (4x)

ACORDES (tal como tocados exatamente na canção):

       D9(6)  G6  G   G#  Em   A
E|---5------x---3---4----7---5----------|
B|---5------5---3---4----8---5----------|
G|---4------6---4---5----9---6----------|
D|---4------4---5---6----9---7----------|
A|---5------x---5---6----7---7----------|
E|----------3---3---4----x---5----------|
Composição de Rodrigo Amarante
Colaboración y revision:
571 reproducciones
    • ½ Tono
    • A
    • Bb
    • B
    • C
    • Db
    • D
    • Eb
    • E
    • F
    • F#
    • G
    • Ab
  • Adicionar à lista

    0 comentarios

    Ver todos os comentários

    ¿Conseguiste tocar?

    8 Tocaram 1 Ainda não

    Grave um vídeo tocando Nada Em Vão e nos envie!

    00:00 / 00:00
    outros vídeos desta música
    repetir qualidade Automático
    Outros vídeos desta música
    00:00 / 00:00
    Automático
    OK