Cifra Club

Tuyo

Rodrigo Amarante

Tablatura: Principal (guitarra)
Tom: E (con acordes en la forma de C) Capo en 4ª casa
Intro:

Am  Bm7(5-) Dm/F  E7(9-)  Am
Am  Bm7(5-) Dm/F  E7  Am/C  Am
Bm7(5-)  E7/G#  Am

Solo Intro:

Parte 1

E|-16-15-14-------------------------------------------|
B|----------17--16-14-14h16---------------------------|
G|--------------------------13-13---------------------|
D|----------------------------------------------------|
A|----------------------------------------------------|
E|----------------------------------------------------|

Parte 2

E|-17-16-15-14----------------------------------------|
B|-------------17-16-16h17-14-14----------------------|
G|----------------------------------------------------|
D|----------------------------------------------------|
A|----------------------------------------------------|
E|----------------------------------------------------|

Parte 3

E|-16-15-14-------------------------------------------|
B|----------17--16-14-14h16-14-13---------------------|
G|----------------------------------------------------|
D|----------------------------------------------------|
A|----------------------------------------------------|
E|----------------------------------------------------|

Parte 4

E|--------------------14-17-16-14-17-16---------------|
B|-13-14-16--14-16-17---------------------------------|
G|----------------------------------------------------|
D|----------------------------------------------------|
A|----------------------------------------------------|
E|----------------------------------------------------|

Intro:

Parte 1

   Am            Bm7(5-)  Dm/F
E|---0-0-0-0---0----------------------------|
B|---1-1-1-1---1------3-3-3-3---3-----------|
G|---2-2-2-2---2------2-2-2-2---2-----------|
D|--------------------3-3-3-3---3-----------|
A|-0----------------2-----------------------|
E|-------0---0------------1---1-------------|

Parte 2

   E7(9-)         Am
E|---1-1-1-1---1--0-0-0-1---0---------------|
B|---3-3-3-3---3--1-1-1-3---1---------------|
G|---1-1-1-1---1--2-2-2-2---2---------------|
D|------------------------------------------|
A|-------2--------0-------------------------|
E|-0---------0--------0---0-----------------|

Parte 1

   Am            Bm7(5-)  Dm/F
E|---0-0-0-0---0----------------------------|
B|---1-1-1-1---1------3-3-3-3---3-----------|
G|---2-2-2-2---2------2-2-2-2---2-----------|
D|--------------------3-3-3-3---3-----------|
A|-0----------------2-----------------------|
E|-------0---0------------1---1-------------|

Parte 3

   E7           Am/C  Am
E|------------------------------------------|
B|---0-0-0-0---0--1-1-1-1---1---------------|
G|---1-1-1-1---1--2-2-2-2---2---------------|
D|---0-0-0-0---0--2-2-2-2---2---------------|
A|-------2--------3---0---0-----------------|
E|-0---------0------------------------------|

Parte 4

   Bm7(5-)  E7/G#  Am
E|------------------------------------------|
B|---3-3------3-3----1-------5-------10-----|
G|---2-2------4-4--2---2-2/5---5-5/9--------|
D|---3-3------2-2---------------------------|
A|-2---2-----------0-----------------0------|
E|----------4---4------------0---0----------|

Primeira Parte:

                 Bm7(5-)  Dm/F
Soy el fuego que arde tu piel
E7                  Am
   Soy el agua que mata tu sed
                 Bm7(5-)  Dm/F
El castillo, la torre    yo soy
E7                Am             A7(9-)
   La espada que guarda el caudal

                Dm7       G
Tu el aire que respiro yo
             C7M              F
Y la luz de la luna en el mar
                Bm7(5-)  Dm/F  E7
La garganta que ansio mojar
                Am         (frase)
Que temo ahogar    de amor

Primeira Parte:

Parte 1

  Bm7(5-)  Dm/F         E7
E|------------------------------------------|
B|---3-3-----3---3----0-0---0---0-----------|
G|---2-2-----2---2----1-1---1---1-----------|
D|---3-3-----3---3----0-0---0---0-----------|
A|-2----------------------2-----------------|
E|---------1---1----0---------0-------------|
Parte 2

   Am
E|------------------------------------------|
B|---1-1---1---1----1-1---1---1-------------|
G|---2-2---2---2----2-2---2---2-------------|
D|---2-2---2---2----2-2---2---2-------------|
A|-0--------------0-------------------------|
E|-------0---0----------0---0---------------|

Parte 1

  Bm7(5-)  Dm/F         E7
E|------------------------------------------|
B|---3-3-----3---3----0-0---0---0-----------|
G|---2-2-----2---2----1-1---1---1-----------|
D|---3-3-----3---3----0-0---0---0-----------|
A|-2----------------------2-----------------|
E|---------1---1----0---------0-------------|

Parte 3

   Am             A7(9-)
E|--------------------0---------------------|
B|---1-1---1---1----2-2---2---2-------------|
G|---2-2---2---2----5-3---3---3-------------|
D|---2-2---2---2----5-----5---5-------------|
A|-0--------------0-------------------------|
E|-------0---0----------0---0---------------|

Parte 4

   Dm7            G
E|---5-5---5---5----------------------------|
B|---6-6---6---6----3-3---3---3-------------|
G|---5-5---5---5----4-4---4---4-------------|
D|------------------5-5---5---5-------------|
A|-5--------------------5-------------------|
E|-------5---5----3---------3---------------|

Parte 5

   C7M            F
E|---3-3---3---3----------------------------|
B|---5-5---5---5----1-1---1---1-------------|
G|---4-4---4---4----2-2---2---2-------------|
D|------------------3-3---3---3-------------|
A|-3--------------------3-------------------|
E|-------3---3----1---------3---------------|

Parte 1

  Bm7(5-)  Dm/F         E7
E|------------------------------------------|
B|---3-3-----3---3----0-0---0---0-----------|
G|---2-2-----2---2----1-1---1---1-----------|
D|---3-3-----3---3----0-0---0---0-----------|
A|-2----------------------2-----------------|
E|---------1---1----0---------0-------------|

Parte 6

   Am
E|------------------------------------------|
B|---1-1---1---1----------------------------|
G|---2-2---2---2----------------------------|
D|---2-2---2---2----3-2-0-------------------|
A|-0--------------0-------3-2-0-------------|
E|-------0---0------------------0-1---------|
                                  *
Segunda Parte:

    Dm9/F         E7
¿Y cuales deseos me vas a dar?
   Dm9/F                   E7
Dices tu: Mi tesoro basta con mirarlo
        Am  Am/G  Dm6/F
Tuyo será
   E7    Am  Am/G  Dm6/F  E7  Am7M
Y tuyo será

Segunda Parte:

Parte 1

   Dm9/F
E|-----0--------------0---------------------|
B|---3-3---3---3----3-3---3---3-------------|
G|---2-2---2---2----2-2---2---2-------------|
D|---3-----3---3----3-----3---3-------------|
A|------------------------------------------|
E|-1-----1---1----1-----1---1---------------|
   *
Parte 2

   E7
E|------------------------------------------|
B|---3-3---3---3----3-3---3---3-------------|
G|---1-1---1---1----1-1---1---1-------------|
D|---0-0---0---0----0-0---0---0-------------|
A|------------------------------------------|
E|-0-----0---0----0-----0---0---------------|

Parte 1

   Dm9/F
E|-----0--------------0---------------------|
B|---3-3---3---3----3-3---3---3-------------|
G|---2-2---2---2----2-2---2---2-------------|
D|---3-----3---3----3-----3---3-------------|
A|------------------------------------------|
E|-1-----1---1----1-----1---1---------------|

Parte 2

   E7
E|------------------------------------------|
B|---3-3---3---3----3-3---3---3-------------|
G|---1-1---1---1----1-1---1---1-------------|
D|---0-0---0---0----0-0---0---0-------------|
A|------------------------------------------|
E|-0-----0---0----0-----0---0---------------|

Parte 3 (2x)


  Am     Am/G   Dm6/F  E7
E|------------------------------------------|
B|---1-1----1-1----0-0----0-0---------------|
G|---2-2----2-2----2-2----1-1---------------|
D|---2-2----2-2----0-0----0-0---------------|
A|-0----------------------------------------|
E|--------3------1------0-------------------|

Parte 4

   Am7M
E|---------0--0-----------------------------|
B|-------1----1-----------------------------|
G|-----1------1-----------------------------|
D|---2--------2-----------------------------|
A|-0----------0-----------------------------|
E|------------------------------------------|

(repete tudo)
reproducciones 14.530
Acordes para:

    0 comentarios

    mostrar más comentarios

    ¿Conseguiste tocar?

    24 tocaron 0 aún no

    ¡Graba un vídeo tocando Tuyo y envianoslo!

    00:00 / 00:00
    outros vídeos desta música
    repetir qualidade Automático
    Outros vídeos desta música
    00:00 / 00:00
    Automático
    OK