Cifra Club

Sapato Velho

Roupa Nova

Tablatura: Completa (guitarra)
Já pensou em usar uma coleção de roupas do Cifra Club? Responda as perguntas abaixo e nos ajude nessa missão! →
tono: A
[Intro]

A9  G  D  E  A9  G  D  A9  D  E

A9  G  D  E  A9  G  D  A9  D  E

[Frase intro]

Parte 1 de 1
                     H.N
E|--------------------7--------------------------------|
B|--------------------7--------------------------------|
G|--------------------7--------------------------------|
D|-2h4p2p0---0--------7--------------------------------|
A|---------4---2-4----7--------------------------------|
E|-----------------0--7--------------------------------|

[Solo Intro]

Parte 1 de 4

E|-------------10-9h10p9-------------------------------|
B|------10-12------------10-10-12----------------------|
G|-9-11------------------------------------------------|
D|-----------------------------------------------------|
A|-----------------------------------------------------|
E|-----------------------------------------------------|

Parte 2 de 4

E|-------------10-9-10-9--9-10-12-10-9-----------------|
B|------10-12--------------------------12-10-----------|
G|-9-11--------------------------------------11--------|
D|-----------------------------------------------------|
A|-----------------------------------------------------|
E|-----------------------------------------------------|

Parte 3 de 4

E|-------------10-9h10p9-------------------------------|
B|------10-12------------10-10-12----------------------|
G|-9-11------------------------------------------------|
D|-----------------------------------------------------|
A|-----------------------------------------------------|
E|-----------------------------------------------------|

Pate 4 de 4

E|------------------10-9-10-9-----10-9-10-12-----------|
B|----------10-12~-------------10----------------------|
G|-9-9-9-11--------------------------------------------|
D|-----------------------------------------------------|
A|-----------------------------------------------------|
E|-----------------------------------------------------|

[Primeira Parte]

 A9   D/A     E/A
Você lembra, lembra
 D    A/C#  Bm7  A
Da__que____le   tempo
G#º  F#m7      F#m7     B/A
Eu  ti___nha estrelas nos olhos
    G#m7       C#m7
Um jeito de herói
F#m7      D  A/C#   Bm7  A
Era mais for__te e ve___loz
      G#º       F#m7
Que qualquer mocinho
 Dm6/F  A9  D/A  E/A  D/A
De  Cowboy

 A9   D/A     E/A
Você lembra, lembra
D   A/C#  Bm7  A   G#º  F#m7
Eu cos___tum___ava an__dar
   F#m7        B/A
Bem mais de mil léguas
     G#m7     C#m7
Pra poder buscar
  F#m7     D  A/C#  Bm7  A
Flores-de mai_o     a___zuis
  G#º        F#m7  
E os seus cabelos
Dm6/F  A9  D/A  E/A  G/A 
Enfei_tar

[Segunda Parte]

D        E/D
Água da fonte
    C#m7     F#4  F#
Cansei de beber
  B  F#/A#  G#m  F#     Eb  Eb/Ab
Pra não     en__ve__lhe__cer

( Eb7M  Eb7(4/9) )

 Ab      Bb/Ab
Como quisesse
    Gm7       C7(4)  C7
Roubar da manhã

F9  C/E  Dm7  C   G#º  A9  D/A  E/A
Um lin__do   pôr-de - sol

 D  A/C#  Bm7  A  G#º  F#m7
Ho_je    não  colho   mais
   F#m7     B/A
As flores-de-maio
     G#m7       C#7
Nem sou mais veloz
 Bbm7      Eb7
Como os heróis
Bm7  E7(4/9)
É   talvez eu

[Terceira Parte]

 A9   D/A    E/A
Seja simplesmente
 D   A/C#  Bm7  A   G#º  F#m7  
Como um   sa___pa__to   ve___lho
 F#m7      B/A
Mas ainda sirvo
    G#m7    C#m7
Se você quiser
 F#m7    D  A/C#  Bm7  A
Basta você me    cal__çar
       G#º        F#m7
Que eu aqueço o frio
 Dm6/F    A9  D/A  E/A  G
Dos seus pés

[Base Solo]

F  G/F  F  G/F

A9  D/A  E/A  G/A

F  G/F  Dm7  G/F  Dm7

E4  E  G/A  A

[Solo Principal]

Parte 1 de 8

E|-----5-8-7-5-7-8/10-7--------------------------------|
B|---6------------------8------------------------------|
G|-7---------------------------------------------------|
D|-----------------------------------------------------|
A|-----------------------------------------------------|
E|-----------------------------------------------------|

Parte 2 de 8

E|-------5---8-7-8/10-8--10-10/12--9-9h10p9------------|
B|-5/6-----6--------------------------------10-12-10---|
G|-----7-----------------------------------------------|
D|-----------------------------------------------------|
A|-----------------------------------------------------|
E|-----------------------------------------------------|

Parte 3 de 8

E|-------9-12-9-10----9--------------------------------|
B|-10-12-----------12---10-12-9-10-10-12-9-10----------|
G|--------------------------------------------11-12----|
D|-----------------------------------------------------|
A|-----------------------------------------------------|
E|-----------------------------------------------------|

Parte 4 de 8

E|-----------------------------------------------------|
B|---------------10-12-b13r12p10-12~-------------------|
G|-------9-10-12---------------------------------------|
D|-11-12-----------------------------------------------|
A|-----------------------------------------------------|
E|-----------------------------------------------------|

Parte 5 de 8

E|-----5------8-------10-------12-------13-15-13-12----|
B|-5h6---6/10---10/12----12/13----13/15----------------|
G|-----------------------------------------------------|
D|-----------------------------------------------------|
A|-----------------------------------------------------|
E|-----------------------------------------------------|

Parte 6 de 8

E|-7---------------------------------------------------|
B|-7h9p7---7h9-----------------------------------------|
G|-------9---------------------------------------------|
D|-----------------------------------------------------|
A|-----------------------------------------------------|
E|-----------------------------------------------------|

Parte 7 de 8

E|------9-10-12-9-10----9------------------------------|
B|-9/12--------------12---10-12-9-10-10-12-9-10--------|
G|----------------------------------------------11-12--|
D|-----------------------------------------------------|
A|-----------------------------------------------------|
E|-----------------------------------------------------|

Parte 8 de 8

E|-----------------------------------------------------|
B|-----------------------------------------------------|
G|-------9-11~-----------------------------------------|
D|-11-12-----------------------------------------------|
A|-----------------------------------------------------|
E|-----------------------------------------------------|

[Segunda Parte]

D        E/D
Água da fonte
    C#m7     F#4  F
Cansei de beber
  B  F#/A#  G#m  F#     Eb  
Pra não     en__ve__lhe__cer

( Eb7M  E7(4/9) )

 Ab      Bb/Ab
Como quisesse
    Gm7       C7(4)  C7
Roubar da manhã

F9  C/E  Dm7  C   G#º  A9  D/A  E/A
Um lin__do   pôr-de - sol

 D  A/C#  Bm7  A  G#º  F#m7
Ho_je    não  colho   mais
   F#m7     B/A
As flores-de-maio
     G#m7       C#7
Nem sou mais veloz
 Bbm7      Eb7
Como os heróis
Bm7  E7(4/9)
É   talvez eu

[Terceira Parte]

 A9   D/A    E/A
Seja simplesmente
 D   A/C#  Bm7  A   G#º  F#m7  
Como um   sa___pa__to   ve___lho
 F#m7      B/A
Mas ainda sirvo
    G#m7    C#m7
Se você quiser
 F#m7    D  A/C#  Bm7  A
Basta você me    cal__çar
       G#º        F#m7
Que eu aqueço o frio
 Dm6/F    A9  E7(4/9)
Dos seus pés talvez eu

 A9   D/A    E/A
Seja simplesmente
 D   A/C#  Bm7  A   G#º  F#m7  
Como um   sa___pa__to   ve___lho
 F#m7      B/A
Mas ainda sirvo
    G#m7    C#m7
Se você quiser
 F#m7    D  A/C#  Bm7  A
Basta você me    cal__çar
       G#º        F#m7
Que eu aqueço o frio
 Dm6/F    A9 
Dos seus pés

[Final]

 A9  D/A  E/A  D/A

 A9  D/A  E/A  D/A  A9

Composição de Cláudio Nucci / Mu / Paulinho Tapajós
88 reproducciones
  • Simplificar cifra
    • ½ Tono
    • A
    • Bb
    • B
    • C
    • Db
    • D
    • Eb
    • E
    • F
    • F#
    • G
    • Ab
  • Adicionar à lista

    0 comentarios

    Ver todos os comentários
    00:00 / 00:00
    outros vídeos desta música
    repetir qualidade Automático
    Outros vídeos desta música
    00:00 / 00:00
    Automático
    Capítulos
    • Tocando a Música
    • Apresentação / Equipamentos
    • Acordes Introdução
    • Tocando Introdução
    • Ritmo da Música
    • Frase Introdução
    • Acordes Primeira Parte
    • Tocando Primeira Parte
    • Ritmo Primeira Parte
    • Acordes Segunda Parte
    • Tocando Segunda Parte
    • Dicas Terceira Parte
    • Acordes Base do Solo
    • Tocando Terceira Parte - Solo
    • Dicas Final
    • Tocando Solo Introdução
    • Solo Introdução Lento
    • Ensinando Solo Introdução - Parte 1
    • Ensinando Solo Introdução - Parte 2
    • Ensinando Solo Introdução - Parte 3
    • Ensinando Solo Introdução - Parte 4
    • Tocando Solo Principal
    • Solo Principal Lento
    • Ensinando Solo Principal - Parte 1
    • Ensinando Solo Principal - Parte 2
    • Ensinando Solo Principal - Parte 3
    • Ensinando Solo Principal - Parte 4
    • Ensinando Solo Principal - Parte 5
    • Ensinando Solo Principal - Parte 6
    • Ensinando Solo Principal - Parte 7
    • Ensinando Solo Principal - Parte 8
    • Encerramento
    OK