Cifra Club

Quando Bate Aquela Saudade

Rubel

Cifrado: Principal (guitarra y guitarra eléctrica)
tono: G
[Intro 1] Am9(11)  D6  G
          Am9(11)  D6  G

[Tab - Dedilhado Intro 1]

Parte 1 de 6
   Am9(11)
E|---------10---------------------------------|
B|-12--------------12-----10------------------|
G|-9------------------------------------------|
D|-10--10------10---------10------------------|
A|-0------------------------------------------|
E|--------------------------------------------|

Parte 2 de 6
   D6
E|---------10---------------------------------|
B|-12--------------12-----10------------------|
G|-11--11------11---------11------------------|
D|-0------------------------------------------|
A|--------------------------------------------|
E|--------------------------------------------|

Parte 3 de 6
   G
E|--------------------------------------------|
B|-8------8-----8-----8-----------------------|
G|-0------------------------------------------|
D|-9---9-----9-----9--------------------------|
A|-10-----------------------------------------|
E|--------------------------------------------|

Parte 4 de 6
   G
E|--------------------------------------------|
B|---8-8------8----8--10---8---10/11----------|
G|-9-------------9----------------------------|
D|---------9----------------------------------|
A|-----10-----10------10----------------------|
E|--------------------------------------------|

Parte 5 de 6
   Am9(11)
E|---------10---------------------------------|
B|-12--------------12-----10------------------|
G|-9------------------------------------------|
D|-10--10------10---------10------------------|
A|-0------------------------------------------|
E|--------------------------------------------|

Parte 6 de 6
   D6                      G 
E|---------10----------10--12--15---------15--|
B|-12--------------12-----------------0---0---|
G|-11--11------11------------------0----0-0---|
D|-0------------------------------------------|
A|-----------------------------10---------10--|
E|--------------------------------------------|
 
[Intro 2] Em7  G7M  Am7(9)
          Em7  G7M  Am7(9)

[Tab - Intro 2 - 2x]

Parte 1 de 4
   Em7
E|-----0-----0-0-0------0-0-------0-0---------|
B|-----3-----3-3-3------3-3-------3-3---------|
G|-----0-----0-0-0------0-0-------0-0---------| (2x)
D|-2-------2----------------2-----------------|
A|-2------------------------------------------|
E|-0---------------0--------------------------|

Parte 2 de 4
   G7M
E|-----2-----2-2-2------2-2-------2-2---------|
B|-----0-----0-0-0------0-0-------0-0---------|
G|-----0-----0-0-0------0-0-------0-0---------|
D|-0-------0----------------0-----------------|
A|-x------------------------------------------|
E|-3---------------3--------------------------|
         
   G7M
E|-----2-----2-2-2------2-2-------------------|
B|-----0-----0-0-0------0-0-------------------|
G|-----0-----0-0-0------0-0-------------------|
D|-0-------0----------------------------------|
A|-x------------------------------------------|
E|-3---------------3--------3---4-------------|

Parte 3 de 4
   Am7(9)
E|-----0-----0-0-0------0-0-------0-0---------|
B|-----0-----0-0-0------0-0-------0-0---------|
G|-----5-----5-5-5------5-5-------5-5---------| (2x)
D|---------5----------------5-----------------|
A|-----------------0--------------------------|
E|-5------------------------------------------|

Parte 4 de 4
   Em7
E|-----0-----0-0-0------0-0-------0-0---------|
B|-----3-----3-3-3------3-3-------3-3---------|
G|-----0-----0-0-0------0-0-------0-0---------| (2x)
D|-2-------2----------------2-----------------|
A|-2------------------------------------------|
E|-0---------------0--------------------------|

[Primeira Parte] 

Em7
    É você que tem
                G7M
Os olhos tão gigantes
                 Am7(9)
E a boca tão gostosa
                 Em7
Eu não vou aguentar


Senta aqui do lado
               G7M
E tira logo a roupa
                       Am7(9)  
E esquece o que não importa
                 Em7
Nem vamos conversar


Olha bem, mulher
                  G7M
Eu vou te ser sincero
                  Am7(9)
Quero te ver de branco
                   Em7
Quero te ver no altar


Não tem medo, não
                   G7M
Eu sei, vai dar errado
              Am7(9)
A gente fica longe
               Em7
E volta a namorar depois

[Refrão] 
 
[Tab - Refrão]

Parte 1 de 5
   Em7
E|-----0-----0-0-0------0-0-------0-0---------|
B|-----3-----3-3-3------3-3-------3-3---------|
G|-----0-----0-0-0------0-0-------0-0---------| (2x)
D|-2-------2----------------2-----------------|
A|-2------------------------------------------|
E|-0---------------0--------------------------|

Parte 2 de 5
   G7M
E|-----2-----2-2-2------2-2-------2-2---------|
B|-----0-----0-0-0------0-0-------0-0---------|
G|-----0-----0-0-0------0-0-------0-0---------| (2x)
D|-0-------0----------------0-----------------|
A|-x------------------------------------------|
E|-3---------------3--------------------------|

Parte 3 de 5
   Am7(9)
E|-----0-----0-0-0------0-0-------0-0---------|
B|-----0-----0-0-0------0-0-------0-0---------|
G|-----5-----5-5-5------5-5-------5-5---------|
D|---------5----------------5-----------------|
A|-----------------0--------------------------|
E|-5------------------------------------------|

Parte 4 de 5
   D7(9)
E|-----0-----0-0-0------0-0-------0-0---------|
B|-----3-----3-3-3------3-3-------3-3---------|
G|-----5-----5-5-5------5-5-------5-5---------|
D|---------4----------------4-----------------|
A|-5---------------5--------------------------|
E|--------------------------------------------|

Parte 5 de 5
   G7M
E|-----2-----2-2-2------2-2-------2-2---------|
B|-----0-----0-0-0------0-0-------0-0---------|
G|-----0-----0-0-0------0-0-------0-0---------| (2x)
D|-0-------0----------------0-----------------|
A|-x------------------------------------------|
E|-3---------------3--------------------------|
 
Parte 3 de 5
   Am7(9)
E|-----0-----0-0-0------0-0-------0-0---------|
B|-----0-----0-0-0------0-0-------0-0---------|
G|-----5-----5-5-5------5-5-------5-5---------|
D|---------5----------------5-----------------|
A|-----------------0--------------------------|
E|-5------------------------------------------|
 
Parte 4 de 5
   D7(9)
E|-----0-----0-0-0------0-0-------0-0---------|
B|-----3-----3-3-3------3-3-------3-3---------|
G|-----5-----5-5-5------5-5-------5-5---------|
D|---------4----------------4-----------------|
A|-5---------------5--------------------------|
E|--------------------------------------------|

Parte 5 de 5
   G7M
E|-----2-----2-2-2------2-2-------2-2---------|
B|-----0-----0-0-0------0-0-------0-0---------|
G|-----0-----0-0-0------0-0-------0-0---------| (2x)
D|-0-------0----------------0-----------------|
A|-x------------------------------------------|
E|-3---------------3--------------------------|

Parte 3 de 5
   Am7(9)
E|-----0-----0-0-0------0-0-------0-0---------|
B|-----0-----0-0-0------0-0-------0-0---------|
G|-----5-----5-5-5------5-5-------5-5---------|
D|---------5----------------5-----------------|
A|-----------------0--------------------------|
E|-5------------------------------------------|
 
Parte 4 de 5
   D7(9)
E|-----0-----0-0-0------0-0-------0-0---------|
B|-----3-----3-3-3------3-3-------3-3---------|
G|-----5-----5-5-5------5-5-------5-5---------|
D|---------4----------------4-----------------|
A|-5---------------5--------------------------|
E|--------------------------------------------|
 
Parte 5 de 5
   G7M
E|-----2-----2-2-2------2-2-------2-2---------|
B|-----0-----0-0-0------0-0-------0-0---------|
G|-----0-----0-0-0------0-0-------0-0---------| (2x)
D|-0-------0----------------0-----------------|
A|-x------------------------------------------|
E|-3---------------3--------------------------|

Olha bem, mulher 
                  G7M
Eu vou te ser sincero
                  Am7(9)
Eu tô com uma vontade danada
            D7(9)                          G7M 
De te entregar todos beijos que eu não te dei
                    Am7(9)
E eu tô com uma saudade apertada
          D7(9)
De ir dormir bem cansado
          G7M
E de acordar do teu lado pra te dizer
          Am7(9) 
Que eu te amo
D7(9)                  G7M
      Que eu te amo demais

 Am7(9)     D7(9)     G7M 
Lá laia la iá laia laia
 Am7(9)     D7(9)     G7M 
Lá laia la iá laia laia

[Primeira Parte] 

Em7
    Olha bem, mulher 
                  G7M
Eu vou te ser sincero
                  Am7(9)
Quero te ver de branco
                   Em7
Quero te ver no altar

Não tem medo, não
              G7M
A gente fica longe
                  Am7(9)
A gente até se esconde
               Em7
E volta a namorar depois


Que é você que tem 
                G7M
Os olhos tão gigantes
                 Am7(9)
E a boca tão gostosa
                 Em7
Eu não vou aguentar

[Refrão] 

Em7
    Olha bem, mulher 
                  G7M
Eu vou te ser sincero
                  Am7(9)
Eu tô com uma vontade danada
            D7(9)                          G7M 
De te entregar todos beijos que eu não te dei
                    Am7(9)
E eu tô com uma saudade apertada
          D7(9)
De ir dormir bem cansado
          G7M
E de acordar do teu lado pra te dizer
          Am7(9) 
Que eu te amo
D7(9)                  G7M
      Que eu te amo demais

 Am7(9)     D7(9)     G7M 
Lá laia la iá laia laia
 Am7(9)     D7(9)     G7M 
Lá laia la iá laia laia

[Refrão Final] 

[Tab - Refrão Final]
 
Parte 1 de 3 
   Am7(9)
E|-----0-----0-0-0------0-0-------0-0---------|
B|-----0-----0-0-0------0-0-------0-0---------|
G|-----5-----5-5-5------5-5-------5-5---------|
D|---------5----------------5-----------------|
A|-----------------0--------------------------|
E|-5------------------------------------------|
 
Parte 2 de 3
   D7(9)
E|-----0-----0-0-0------0-0-------0-0---------|
B|-----3-----3-3-3------3-3-------3-3---------|
G|-----5-----5-5-5------5-5-------5-5---------|
D|---------4----------------4-----------------|
A|-5---------------5--------------------------|
E|--------------------------------------------|
 
Parte 3 de 3
   G7M
E|-----2-----2-2-2------2-2-------2-2---------|
B|-----0-----0-0-0------0-0-------0-0---------|
G|-----0-----0-0-0------0-0-------0-0---------| (2x)
D|-0-------0----------------0-----------------|
A|-x------------------------------------------|
E|-3---------------3--------------------------|

                  Am7(9)
Eu tô com uma vontade danada
            D7(9)                          G7M 
De te entregar todos beijos que eu não te dei
                    Am7(9)
E eu tô com uma saudade apertada
          D7(9)
De ir dormir bem cansado
          G7M
E de acordar do teu lado pra te dizer
          Am7(9) 
Que eu te amo
D7(9)                  G7M
      Que eu te amo demais

[Tab - Dedilhado Final]

Parte 1 de 6 
   Am9(11)
E|---------10-------------------------------|
B|-12--------------12-----10----------------|
G|-9----------------------------------------|
D|-10--10------10---------10----------------|
A|-0----------------------------------------|
E|------------------------------------------|

Parte 2 de 6
   D6
E|---------10-------------------------------|
B|-12--------------12-----10----------------|
G|-11--11------11---------11----------------|
D|-0----------------------------------------|
A|------------------------------------------|
E|------------------------------------------|

Parte 3 de 6
   G
E|------------------------------------------|
B|-8----------------------------------------|
G|-0----------------------------------------|
D|-9----------------------------------------|
A|-10---------------------------------------|
E|------------------------------------------|
00:00 / 00:00
Otros videos de esta canción
Repetir
Otros videos de esta canción
Composición de Rubel
8.917 exhibiciones
  • Simplificar cifrado
    • ½ Tono
    • A
    • Bb
    • B
    • C
    • Db
    • D
    • Eb
    • E
    • F
    • F#
    • G
    • Ab
  • Agregar a la lista
    00:00 / 00:00
    Capítulos
    • Apresentação
    • Tocando a Música
    • Acordes Introdução
    • Ensinando Introdução 1
    • Ensinando Introdução 2
    • Dicas Primeira Parte
    • Tocando Primeira Parte
    • Acorde Refrão
    • Ensinando o Refrão
    • Tocando Passagem
    • Ensinando Passagem
    • Dicas Repetições e Final
    • Ensinando Final
    • Encerramento
    OK