Cifra Club

Junk, Meu Rei

Superfly

Cifrado: Principal (guitarra y guitarra eléctrica)
Selo Cifra Club: esta cifra foi revisada para atender aos critérios oficiais da nossa Equipe de Qualidade.
tono: D
_______________________
* ou P.M - Palmed muted * 
/\ - Slide              *
________________________*

  Intro    P.M                  4x                               4x
e|--------------------------------|--------------------------------||
B|--------------------------------|--------------------------------||
G|--------------------------------|--------------------------------||
D|----5----5------7---------------|----5----5---------7------------||
A|-77--0-7--0-7-55--5\444-5-4-----|--7--0-7--0-7-7-75--54-54-------||
E|----------------------------7---|-------------------------7------||
   

  Versos         Pré-Refrão                                      2x
e|-------------||--------------------------------------------------||
B|-------------||--------------------------------------------------||
G|-9---7---6---||--------------------------------------------------||
D|-9---7---7---||---5----5-------7----------5----5-------7---------||
A|-7...5...7---||-7--0-7--0-7-75--54-54---7--0-7--0-7-75--5--4-5---||
E|---------5...||----------------------7-------------------5-------||


  Refrão      2x                                 Final  
e|--------------|----------------||-Verso------||-----|||
B|--------------|----------------||-Pré-Refrão-||-----|||
G|-4---6---9----|-4---6----------||-Refrão-----||-----|||
D|-5---7---9----|-5---7----------||-Intro------||--2--|||
A|-5---7---7...-|-5---7---/12...-||-Refrão-----||--2--|||
E|-3...5...-----|-3...5...-------||------------||--0--|||
                           **   
Otros videos de esta canción
    14 exhibiciones
      • ½ Tono
      • A
      • Bb
      • B
      • C
      • Db
      • D
      • Eb
      • E
      • F
      • F#
      • G
      • Ab
    • Agregar a la lista

    Afinação da cifra

    Afinador online

      Ops (: Contenido disponible solo en portugués.
      OK