Cifra Club

Sozinha

Superfly

Tab de bajo: Principal
Selo Cifra Club: esta cifra foi revisada para atender aos critérios oficiais da nossa Equipe de Qualidade.
Introdução:
|-------------------------------------|
|-------------------------------------|
|-------------------------------------|
|-------3*----0*---------------------|

1° Parte
|---------------------------------------|
|---------------------------------------|
|------------0-1-2------------5-3-2---|
|---0-0-3-0--------0--0-3-0--------3-|

2° Parte
|-----------------------------------------|
|-----------------------------------------|
|---------------0-1-2-----------5-3-2---|
|-3---0-0-3-0--------0--0-3-0--------3-| 2x

3°Parte
|-----------------------------------------|
|-----------------------------------------|
|---0---3---5*---------------------------|
|-----------------------------------------|  3x

Cont. 3° Parte
|-----------------------------------------|
|-----------------------------------------|
|-----------------------------------------|
|---/8---3---5*--------------------------|

4° Parte
|------------------------------------------|
|------------------------------------------|
|--3-3--2--3-0--5-5--3-5-2--------------|
|-----------------------------3-3--2-2--0-|

Cont. 4° Parte
|------------------------------------------------|
|----------------------------------5-5--4-4--2-|
|--0-2-3-3--2--3-0--5-5--3-5-2---------------|
|------------------------------------------------|

Cont. 4° Parte
|---------------------------------|
|---------------------------------|
|------------------------5--------|
|---5*----7-----8*---------------|

Depois de tudo isso você deve fazer:

1° Parte – 2x
2° Parte – 1x
3° Parte – 1x
4° Parte – 1x
Introdução – 1x

Final
|-------------------------------|
|-------------------------------|
|------------------5*-----------|
|--5*---7---8*---------5---3--|



_______________________________________________________
Contribuição: Fabrício e Conrado(fabricionallo@terra.com.br)
Otros videos de esta canción
    11 exhibiciones

    Afinação da cifra

    Afinador online

    Ops (: Contenido disponible solo en portugués.
    OK