Cifra Club

Transeira

Superfly

Cifrado: Principal (guitarra y guitarra eléctrica)
Selo Cifra Club: esta cifra foi revisada para atender aos critérios oficiais da nossa Equipe de Qualidade.
tono: G
Versão 1
-======-


 D C# B G A
 D C# B G A 

  B  
 Mas que ciumêra fico lôco de bobeira procurando a noite inteira de Segunda a Sexta-feira
                A
 esperando você me ligar.
                                                              B
 Eu tô afim de te levar para um motel cê disse "não te quero não".

 Ouvir dizer que cê tem fama de transeira , sem vergonha , fofoqueira eu  tô  de  cara 
                             A
 eu tô careta demorando de você chegar.

 Sua vó me disse que você não dormiu nada achava que fugiu de casa , apaixonada , preocupada, 
                G                    A
 saiu toda decidida a conquistar alguém.


  B           D          A       D C# B
   Não se esqueça de me procurar
  B      D           A   D C# B 
   Resolver um caso teu
  B      D             A       D C# B
   Prometi não vou te censurar
  B      D             A
   Passo horas sem te ver
         B    G          A
  Então diga , o que eu devo encontrar
           B    G      A
  Suas mentiras , não vou te deixar. 
         B    G          A
  Então diga , o que eu devo encontrar
           B    G      A
  Suas mentiras , não voooooou
  
  D C# B G A
  D C# B G A 


  repete tudo


  4x{D C# B G A}
  

Acordes:
 
  D  C#  B  G  A
|----------------------------------------------|
|----------------------------------------------|
|-7--6---4-------------------------------------|
|-7--6---4--5--7-------------------------------|
|-5--4---2--5--7-------------------------------|
|-----------3--5-------------------------------|

Cifrado por Lúcio Nunes Carmo de Oliveira.

_______________________________________________________







Versão 2
-======-

Introdução
  
G|----------------------------
D|----------------------------
A|--5-4-22222-----------------
E|------------33333--55555----

G|----------------------------
D|----------------------------
A|--5-4-22222-----------------
E|------------33333--55555--7-

Um tempo so com bateria e voz depois volta:

G|----------------------------
D|----------------------------
A|----------------------------
E|---------555555-------------

Um tempo so com bateria e voz depois volta:

G|----------------------------
D|----------------------------
A|----------------------------
E|---------777777-------------

Um tempo so com bateria e voz depois volta:

G|----------------------------
D|----------------------------
A|----------------------------
E|---------555555-------------

Um tempo so com bateria e voz depois volta:

G|----------------------------------------
D|--4-55555---4-55555----5-77777---577777-
A|----------------------------------------
E|----------------------------------------

pré refão:

G|----------------------------
D|----------------------------  --> 1 vez
A|--22222--55555--------------
E|-----------------55555------

G|----------------------------
D|----------------------------   ---> 4 vezes
A|--5-4-22222---55555---------
E|--------------------55555---

Refrão:

G|----------------------------
D|----------------------------   ---> 4 vezes
A|--2222----------------------
E|--------3333---55555555-----

Voltar para a introdução e repetir a musica toda.
Otros videos de esta canción
    48 exhibiciones
      • ½ Tono
      • A
      • Bb
      • B
      • C
      • Db
      • D
      • Eb
      • E
      • F
      • F#
      • G
      • Ab
    • Agregar a la lista

    Afinação da cifra

    Afinador online

      Ops (: Contenido disponible solo en portugués.
      OK