Cifra Club

Prison song

System Of a Down

Tab de bajo: Versão 3
Album - Toxicity

(CGCF Tuning)

Intro:
F/-------------------------------------------------
C/-------------------------------------------------
G/-----------------------------------------1-1-1-1-
C/-0--------0-1-3-1--0-1-3-1--0-1-3-1--0-1---------

Chorus:
F/-----------------------------------------------------------
C/-----------------------------------------------------------
G/----------------------------------------------1-1-1-1-1-1-1
C/-0-0-0-0-0-0-0---0-0-0-0-0-0-0--0-0-0-0-0-0-0--------------

F/----------------------------------------
C/----------------------------------------
G/--------------------------------1-1-1-1-
C/-0-1-3-1--0-1-3-1--0-1-3-1--0-1---------

Verse:
F/-----------------------------------------
C/-0-0-0-0-0-0-0-0-0-0-0-0-0-0-0-0-0-0-0-0-
G/-----------------------------------------
C/-----------------------------------------

F/--------------
C/-0-1--0-1-3-1-
G/--------------
C/--------------

Bridge:
F/----------------------------------------
C/----------------------------------------
G/--------------------------------1-1-1-1-
C/-0-0----0-0-0----0-0-0----0-0-0---------
00:00 / 00:00
Otros videos de esta canción
Repetir
Otros videos de esta canción
Composición de Daron Malakian / Serj Tankian
11 vistas

0 comentarios

Ver todos los comentarios
00:00 / 00:00
OK