Cifra Club

Return To Zero

Systematic

Cifrado: Principal (guitarra y guitarra eléctrica)
Selo Cifra Club: esta cifra foi revisada para atender aos critérios oficiais da nossa Equipe de Qualidade.
tono: E
[Intro] 
E|----------------------|
             |      3x            ||
E|----------|---------| |---------||
B|----------|---------| |---------||
G|----------|---------| |---------||
D|-x-x-x-x--|---------| |---------||
A|-x-x-x-x--|-2-4-4-7-| |-2-2-2-2-||
E|-x-x-x-x--|-0-2-2-5-| |-0-0-0-0-||


[Pre-Verse]

E|-----------------------------------------------------0---------------------------------|
B|-------------------------x-x-------------------------0---------------x-x---------------|
G|-------------------------x-x-----------------------------------------x-x---------------|
D|-------------------------x-x-------------------x-x-------------------x-x---------------|
A|-4-4-(4)-4----4-4-(4)-4-------4-4-(4)-4----4-4-x-x-4------4-4-(4)-4--------4-4-(4)-4---|
E|-2-2--0--2----2-2--0--2-------2-2--0--2----2-2-----2------2-2--0--2--------2-2--0--2---|

E|-------------------------------0-|
B|-------------x-x---------------0-|
G|-------------x-x-----------------|
D|-------------x-x--------x-x------|
A|--4-4-(4)-4---------4-4-x-x-4----|
E|--2-2--0--2---------2-2-----2----|


Guitar 2 is doin pick slides in the background throughout the whole song pretty much

E|---------------------------------------------------------0--|
B|--------------------------x-x----------------------------0--|
G|--------------------------x-x-------------------------------|
D|--------------------------x-x---------------------x-x-------|
A|-4-4-(4)-4-----4-4-(4)-4-------4-4-(4)-4------4-4-x-x-4-----|
E|-2-2--0--2-----2-2--0--2-------2-2--0--2------2-2-----2-----|

E|-------------------------------------------------------0--|
B|------------x-x-------------------------x-x------------0--|
G|------------x-x-------------------------x-x---------------|
D|------------x-x-------------------------x-x------x-x------|
A|-4-4-(4)-4------4-4-(4)-4-----4-4-(4)-4------4-4-x-x-4----|
E|-2-2--0--2------2-2--0--2-----2-2--0--2------2-2-----2----|


[Verse] (or a variation of this)

E|---------------------------------------------------0--|
B|---------------------------------------------------0--|
G|------------------------------------------------------|
D|--------------------------------------------x-x-------|
A|-4-4-(4)-4----4-4-(4)-4----4-4-(4)-4----4-4-x-x-4-----|
E|-2-2--0--2----2-2--0--2----2-2--0--2----2-2-----2-----|

E|---------------------------------------------------------0--|
B|--------------------------x-x----------------------------0--|
G|--------------------------x-x-------------------------------|
D|--------------------------x-x---------------------x-x-------|
A|-4-4-(4)-4-----4-4-(4)-4-------4-4-(4)-4------4-4-x-x-4-----|
E|-2-2--0--2-----2-2--0--2-------2-2--0--2------2-2-----2-----|

E|---------------------------------------------------0--|
B|---------------------------------------------------0--|
G|------------------------------------------------------|
D|--------------------------------------------x-x-------|
A|-4-4-(4)-4----4-4-(4)-4----4-4-(4)-4----4-4-x-x-4-----|
E|-2-2--0--2----2-2--0--2----2-2--0--2----2-2-----2-----|

@ around :40 gtr2 is doin something like this
E|-----------------|
B|-----------------|
G|-----------------|
D|-----------------|
A|-------------5---|
E|-0-2-2-0-2-0---0-|


[Chorus]
                                        1,3,5,7    2,4,6,8
E|------------------------------------|---------|---------|
B|------------------------------------|---------|---------|
G|------------------------------------|---------|---------|
D|-------------------------9-9-9-9-9--|---------|---------|
A|-2-4-4-4-4-4/7-7-7-7-7-7/7-7-7-7-7--|--9-9-9--|--8-7-2--|
E|-0-2-2-2-2-2/5-5-5-5-5-5/7-7-7-7-7--|--7-7-7--|--6-5-0--|
                                                    .....

1:48 Guitar 2 plays
E|---12b---|
B|---------|
G|---------|
D|---------|
A|---------|
E|---------|



************************************

| b    Bend
| x    Dead note
| (n)  Ghost note
| /    Slide up
   
Otros videos de esta canción
    4 exhibiciones
      • ½ Tono
      • A
      • Bb
      • B
      • C
      • Db
      • D
      • Eb
      • E
      • F
      • F#
      • G
      • Ab
    • Agregar a la lista

    Afinação da cifra

    Afinador online

      Ops (: Contenido disponible solo en portugués.
      OK