Cifra Club

Answer

The Ataris

Cifrado: Principal (guitarra y guitarra eléctrica)
tono: G
Intro:
e|-----|-7---|-------------------------|-------------------------|
B|-----|-----|-------------------------|-------------------------|
G|-4---|-4---|-4-----4-4-4-----------4-|-4-----4-4-4-----------4-|
D|-----|-----|-4-4-4-4-4-4-4-4-4-4-4-4-|-4-4-4-4-4-4-4-4-4-4-4-4-|
A|-2---|-----|-2-2-2-2-2-2-2-2-2-2-2-2-|-2-2-2-2-2-2-2-2-2-2-2-2-|
E|-----|-----|-------------------------|-------------------------|

Verso 1: (2X)
e|-------------------------|-------------------------|
B|-------------------------|-------------------------|
G|-4-----4-4-5-----------5-|-7-----7-7---------------|
D|-4-4-4-4-4-5-5-5-5-5-5-5-|-7-7-7-7-7-7-----------7-|
A|-2-2-2-2-2-3-3-3-3-3-3-3-|-5-5-5-5-5-7-7-7-7-7-7-7-|
E|-------------------------|-----------5-5-5-5-5-5-5-|

Verso 2: (2X)
e|-------------------------------|-------------------------------|
B|-------------------------------|-------------------------------|
G|-4--4-4-4-4-4-4-5--5-5-5-5-5-5-|-7--7-7-7-7-7-7----------------|
D|-4--4-4-4-4-4-4-5--5-5-5-5-5-5-|-7--7-7-7-7-7-7-7--7-7-7-7-7-7-|
A|-2--2-2-2-2-2-2-3--3-3-3-3-3-3-|-5--5-5-5-5-5-5-7--7-7-7-7-7-7-|
E|-------------------------------|----------------5--5-5-5-5-5-5-|

Pré Refrão:
e|----------|----------|----------|----------|
B|----------|----------|----------|----------|
G|-11--12---|-11-------|-11--12---|-11-------|
D|----------|-----12---|----------|-----12---|
A|----------|----------|----------|----------|
E|----------|----------|----------|----------|

Refrão: (3X)                          Riff:
e|---------------------------------| |-----------|
B|---------------------------------| |-----------|
G|---------------------------------| |-----------|
D|-4-4-4-4-4-4-4-4-5-5-5-5-5-5-X-X-| |-4-4-4-3-4-|
A|-4-4-4-4-4-4-4-4-5-5-5-5-5-5-X-X-| |-2-2-2-1-2-|
E|-2-2-2-2-2-2-2-2-3-3-3-3-3-3-X-X-| |-----------|

Verse 2: (4X)

Pre-Chorus:

Chorus: (4X)


Riff 2:
e|--------|--------|--------|--------|
B|--------|--------|--------|--------|
G|--------|--------|--------|--------|
D|-4------|-(4)----|-(4)----|-(4)----|
A|-4------|-(4)----|-(4)----|-(4)----|
E|-2------|-(2)----|-(2)----|-(2)----|

Outro: (4X)
e|-----------------------------------|---------------------------------|
B|-----------------------------------|---------------------------------|
G|-----------------7-7-7-7-7---------|-----------------7-7-7-7-9-9-9-9-|
D|-4-4-4-4-5-5-5-5-7-7-7-7-7-7-7-7-7-|-4-4-4-4-5-5-5-5-7-7-7-7-9-9-9-9-|
A|-4-4-4-4-5-5-5-5-5-5-5-5-5-7-7-7-7-|-4-4-4-4-5-5-5-5-5-5-5-5-7-7-7-7-|
E|-2-2-2-2-3-3-3-3-----------5-5-5-5-|-2-2-2-2-3-3-3-3-----------------|
00:00 / 00:00
Otros videos de esta canción
Repetir
Otros videos de esta canción
Composición de The Ataris
Colaboración y revisión:
  • Jean Sapia
7 exhibiciones
    • ½ Tono
    • A
    • Bb
    • B
    • C
    • Db
    • D
    • Eb
    • E
    • F
    • F#
    • G
    • Ab
  • Agregar a la lista
    00:00 / 00:00
    OK