Cifra Club

Bad case of broken heart

The Ataris

Cifrado: Principal (guitarra y guitarra eléctrica)
tono: D
D5                        
Today I'm missing something
B5                           G5
In this small new england town.
                            A5
Here's to you my best friend.
Just wanted to say that I miss
Having you around.

D5     
I'm staring at your picture
B5                                     G5
And dreaming that I could hold your hand.
We'd walk down to the ocean
A5                                 A5 A5
And I would write your name in the sand.

B5                                    G5 
They say sometimes you need some time apart
 D5                       A5
But I've got a bad case of broken heart.
B5                                     G5
And you're the only one who's got the cure.
  D5                            A5
And I can't live another day without seeing you smile.

E|-----------------------------------------
B|-----------------------10------------------
G|--------------------9b----9-12-7-----12-11-9-7-6-  9-11
D|-------------------------------------------
A|-------------------------------------------
E|-------------------------------------------

E|-------------------10-9-----------------
B|-----9b-9-10-9-12---------10-12-10---------
G|------------------------------------12-11-12-11
D|----------------------------------------------
A|----------------------------------------------
E|----------------------------------------------

E|------------------------------------------
B|------------------------------------------
G|-------------7h9-7---7---------------------
D|----------7/9------9-----------------------
A|--------------------------------------------
E|--------------------------------------------

D5                        B5
2000 miles between us and I guess that I'm the one 
     G5
to blame.
Relationships and heartaches,
 A5
These two things are one and the same.

D5                          B5
The radio plays a love song.
                                  G5
I smash my fist right through the dial.
Here's to the broken hearted.
A5                   A5 A5
A generation born in denial.

REFRAO
Composición de Kris Roe
Colaboración y revisión:
  • Luiz Moraes
51 vistas
    • ½ Tono
    • A
    • Bb
    • B
    • C
    • Db
    • D
    • Eb
    • E
    • F
    • F#
    • G
    • Ab
  • Agregar a la lista

    0 comentarios

    Ver todos los comentarios

    ¿Lograste tocar?

    0 Tocaron 0 Aún no

    ¡Graba un video tocando Bad case of broken heart y envíanoslo!

    00:00 / 00:00
    Outros vídeos desta música
    Repetir Calidad Automático
    Outros vídeos desta música
    00:00 / 00:00
    Automático
    OK