Cifra Club

Choices

The Ataris

Chords: Principal (acoustic and electric guitars)
tone: A
Intro:
e|------------------------------------------|
B|------------------------------------------|
G|--7777------------------------------------|
D|--7777--2222--5555--7777-(X2)-------------|
A|--5555--2222--5555--7777------------------|
E|--------0000--3333--5555------------------|

Verso:
e|------------------------------------------|
B|------------------------------------------|
G|--7777------------------------------------|
D|--7777--2222--5555--7777-(X2)-------------|
A|--5555--2222--5555--7777------------------|
E|--------0000--3333--5555------------------|
"Well I've got a couple things to say about a guy and a girl"

Refrão:
e|------------------------------------------------------|
B|------------------------------------------------------|
G|----------------77--66--44--22------------------------|
D|--X5555--X7777--77--66--44--22--X5555--77-------------|
A|--X5555--X7777--55--44--22--00--X5555--77-------------|
E|--X3333--X5555------------------X3333--55-------------|
"I know you've heard it all before...."

Intro:
e|------------------------------------------|
B|------------------------------------------|
G|--7777------------------------------------|
D|--7777--2222--5555--7777-(X2)-------------|
A|--5555--2222--5555--7777------------------|
E|--------0000--3333--5555------------------|

Verso 2:
e|------------------------------------------|
B|------------------------------------------|
G|--7777------------------------------------|
D|--7777--2222--5555--7777-(X2)-------------|
A|--5555--2222--5555--7777------------------|
E|--------0000--3333--5555------------------|
"Well I met a girl I thought I loved but, unfortunately"

-Refrão
-Intro (X3)
-Refrão

Outro:
e|------------------------------------------|
B|------------------------------------------|
G|--7---------------------------------------|
D|--7--2--5--7------------------------------|
A|--5--2--5--7------------------------------|
E|-----0--3--5------------------------------|
"If you think you've found that one...."
00:00 / 00:00
Other videos of this song
Repeat
Other videos of this song
9 views
    • ½ Tone
    • A
    • Bb
    • B
    • C
    • Db
    • D
    • Eb
    • E
    • F
    • F#
    • G
    • Ab
  • Add to list

Afinação da cifra

Afinador online

    00:00 / 00:00
    OK