Cifra Club

Aprenda

A Day In The Life

The Beatles

Tablatura: Versão 3 (guitarra)
tono: G
here it is all i know of it anyway

e)--3---------|--0------0-|-----------|-----------|-----------|-----------|
B)--0--0-2-0--|-----0-3---|-----------|--1---0-1--|-0---------|--0--0-0---|
G)--0---------|-----------|---0-------|----0------|---2-0-2---|--2--------|
D)--0---------|-----------|---2-------|-----------|-----------|--2--------|
A)--2---------|-----------|---2-------|--3--------|-2---------|--0--------|
E)--3---------|--2--------|---0-------|-----------|-----------|-----------|

repeat once

e)------------|-----------|-----------|-----------|
B)----3----5--|----3--5---|-----------|-----------|
G)--4---4-----|--4------4-|----4-5-4--|2-0-2---4-4|
D)------------|-----------|--5--------|-------2---|
A)------------|-----------|-----------|-----------|
E)------------|-----------|-----------|-----------|

thats all i kno credit goes to bese
Composição de John Lennon / Paul McCartney
114 reproducciones
    • ½ Tono
    • A
    • Bb
    • B
    • C
    • Db
    • D
    • Eb
    • E
    • F
    • F#
    • G
    • Ab
  • Adicionar à lista

    0 comentarios

    Ver todos os comentários
    00:00 / 00:00
    outros vídeos desta música
    repetir qualidade Automático
    Outros vídeos desta música
    00:00 / 00:00
    Automático
    OK