Cifra Club

While My Guitar Gently Weeps

The Beatles

Cifrado: Solo (guitarra y guitarra eléctrica)
tono: C
[Solo]

Parte 1 De 7

E|------------------------------------------|
B|---------------------13b15--15b17--13-----|
G|-b17r14----12h14b17--------------------14~|
D|------------------------------------------|
A|------------------------------------------|
E|------------------------------------------|

Parte 2 De 7

E|------------------------------------------|
B|------------------------------------------|
G|-12h14b17--b17~-------12h14b17--b17~------|
D|------------------------------------------|
A|------------------------------------------|
E|------------------------------------------|

E|------------------------------15----------|
B|-----------15b17r15p13-15b17--------------|
G|-12h14b17---------------------------------|
D|------------------------------------------|
A|------------------------------------------|
E|------------------------------------------|

Parte 3 De 7

E|-------------15b17----15b17--15b17--------|
B|-b17r15--13-------------------------------|
G|------------------------------------------|
D|------------------------------------------|
A|------------------------------------------|
E|------------------------------------------|

Parte 4 De 7

E|-b17r15--15b17---------------15-----------|
B|------------------b17r15b17-----b17r15----|
G|------------------------------------------|
D|------------------------------------------|
A|------------------------------------------|
E|------------------------------------------|

E|-----------15-----------------------------|
B|-13h15b17-----b17r15--13~-----------------|
G|------------------------------------------|
D|------------------------------------------|
A|------------------------------------------|
E|------------------------------------------|

Parte 5 De 7

E|------------------------------------------|
B|------------------------------------------|
G|-b17r14-12h14b17--b17---------------------|
D|------------------------------------------|
A|------------------------------------------|
E|------------------------------------------|

Parte 6 De 7

E|------------------------------------------|
B|-----8------------------------------------|
G|-7h9---9-7\5-7---5h7-5--------------------|
D|------------------------------------------|
A|------------------------------------------|
E|------------------------------------------|

Parte 7 De 7

E|------------------------------------------|
B|------8/10--10/13--13/15--15/17-----------|
G|-7/9--------------------------------------|
D|------------------------------------------|
A|------------------------------------------|
E|------------------------------------------|

E|----17----17-17----17---------------------|
B|-17----20-------20------------------------|
G|------------------------------------------|
D|------------------------------------------|
A|------------------------------------------|
E|------------------------------------------|
00:00 / 00:00
Otros videos de esta canción
Repetir
Otros videos de esta canción
Composición de George Harrison
Colaboración y revisión:
  • Vinícius Dias
162 vistas
  • Simplificar cifrado
    • ½ Tono
    • A
    • Bb
    • B
    • C
    • Db
    • D
    • Eb
    • E
    • F
    • F#
    • G
    • Ab
  • Agregar a la lista

    0 comentarios

    Ver todos los comentarios

    ¿Lograste tocar?

    3 Tocaron 0 Aún no

    ¡Graba un video tocando While My Guitar Gently Weeps y envíanoslo!

    00:00 / 00:00
    Capítulos
    • Tocando a Música
    • Apresentação / Equipamentos
    • Solo - Parte 1 de 7
    • Solo - Parte 2 de 7
    • Solo - Parte 3 de 7
    • Solo - Parte 4 de 7
    • Solo - Parte 5 de 7
    • Solo - Parte 6 de 7
    • Solo - Parte 7 de 7
    • Encerramento
    OK