Cifra Club

Aprenda

Just Like Heaven

The Cure

Tablatura: Versão 7 (guitarra)
tono: D
After watching countless live performances,both electric and acoustic, this is what I've
able to come up with.

On a side note, if you're going to print this out, please, just copy and paste the tabs
Microsoft Word, make the font 8 point Lucida Console, and split up the different
of it. Why? Because if you don't, the printer will break apart pieces the tabs 
into different pages. And I quite frankly, find that annoying.


Album: Kiss Me, Kiss Me, Kiss Me
Tuning: Guitar 1 - Standard   Guitar 2 - Standard
Tabbed by: Alan
*

Intro

0:06-0:50
Guitar 1
|---------------------------------------------|
|---------------------------------------------|
|---------------------------------------------|
|--------------------------------4-4-4-4-4----|
|--4-4-4-4-4-----------5-5-5-5-5--------------|
|------------4-4-4-4-4------------------------|

|----------------------------------------------------------------||
|--2-2-2-2-2-2--------------------------------2-2-2-2-2-2-2-2----||
|--2-2-2-2-2-2-1-1-1-1-1-1-1-1--4-4-4-4-4-4-4-3-3-3-3-3-3-3-3----||
|--2-2-2-2-2-2-2-2-2-2-2-2-2-2--4-4-4-4-4-4-4-0-0-0-0-0-0-0-0----||
|--0-0-0-0-0-0-2-2-2-2-2-2-2-2--2-2-2-2-2-2-4--------------------||
|--------------0-0-0-0-0-0-0-0-----------------------------------||

            Play that 6 times


Guitar 2
0:25-0:50
|-------------------------------------------------------------|
|--14-14-14-12-12-10--9-9-9-7-7-5--3-3-2-3-2------------------|
|--------------------------------------------4-4-4-2-2-4-4----|
|-------------------------------------------------------------|
|-------------------------------------------------------------|
|-------------------------------------------------------------|

|-------------------------------------------------------------|
|--14-14-14-12-12-10--9-9-9-7-7-5--3-3-2-3-2------------------|
|--------------------------------------------4-4-4-2-2-4-4----|
|-------------------------------------------------------------|
|-------------------------------------------------------------|
|-------------------------------------------------------------|

|--------------------------------------------------------------------|
|-2-2-2-3-3-5--7-7-7-9-9-10--12-12-12-15-15-17--17-17-17-15-15-15----|
|--------------------------------------------------------------------|
|--------------------------------------------------------------------|
|--------------------------------------------------------------------|
|--------------------------------------------------------------------|

|-------------------------------------------------------------|
|--14-14-14-12-12-10--9-9-9-7-7-5--3-3-2-3-2------------------|
|--------------------------------------------4-4-4-2-2-4-4----|
|-------------------------------------------------------------|
|-------------------------------------------------------------|
|-------------------------------------------------------------|


Verse 1
Guitar 1
0:50-1:15
|----------------------------------------------------------------||
|--2-2-2-2-2-2--------------------------------2-2-2-2-2-2-2-2----||
|--2-2-2-2-2-2-1-1-1-1-1-1-1-1--4-4-4-4-4-4-4-3-3-3-3-3-3-3-3----||
|--2-2-2-2-2-2-2-2-2-2-2-2-2-2--4-4-4-4-4-4-4-0-0-0-0-0-0-0-0----||
|--0-0-0-0-0-0-2-2-2-2-2-2-2-2--2-2-2-2-2-2-4--------------------||
|--------------0-0-0-0-0-0-0-0-----------------------------------||

      Play that 4 times


Interlude
Guitar 1
1:15-1:40
|----------------------------------------------------------------||
|--2-2-2-2-2-2--------------------------------2-2-2-2-2-2-2-2----||
|--2-2-2-2-2-2-1-1-1-1-1-1-1-1--4-4-4-4-4-4-4-3-3-3-3-3-3-3-3----||
|--2-2-2-2-2-2-2-2-2-2-2-2-2-2--4-4-4-4-4-4-4-0-0-0-0-0-0-0-0----||
|--0-0-0-0-0-0-2-2-2-2-2-2-2-2--2-2-2-2-2-2-4--------------------||
|--------------0-0-0-0-0-0-0-0-----------------------------------||

      Play that 4 times

Guitar 2
|-------------------------------------------------------------|
|--14-14-14-12-12-10--9-9-9-7-7-5--3-3-2-3-2------------------|
|--------------------------------------------4-4-4-2-2-4-4----|
|-------------------------------------------------------------|
|-------------------------------------------------------------|
|-------------------------------------------------------------|

|-------------------------------------------------------------|
|--14-14-14-12-12-10--9-9-9-7-7-5--3-3-2-3-2------------------|
|--------------------------------------------4-4-4-2-2-4-4----|
|-------------------------------------------------------------|
|-------------------------------------------------------------|
|-------------------------------------------------------------|

|--------------------------------------------------------------------|
|-2-2-2-3-3-5--7-7-7-9-9-10--12-12-12-15-15-17--17-17-17-15-15-15----|
|--------------------------------------------------------------------|
|--------------------------------------------------------------------|
|--------------------------------------------------------------------|
|--------------------------------------------------------------------|

|-------------------------------------------------------------|
|--14-14-14-12-12-10--9-9-9-7-7-5--3-3-2-3-2------------------|
|--------------------------------------------4-4-4-2-2-4-4----|
|-------------------------------------------------------------|
|-------------------------------------------------------------|
|-------------------------------------------------------------|


Verse 2
Guitar 1
1:40-2:05
|----------------------------------------------------------------||
|--2-2-2-2-2-2--------------------------------2-2-2-2-2-2-2-2----||
|--2-2-2-2-2-2-1-1-1-1-1-1-1-1--4-4-4-4-4-4-4-3-3-3-3-3-3-3-3----||
|--2-2-2-2-2-2-2-2-2-2-2-2-2-2--4-4-4-4-4-4-4-0-0-0-0-0-0-0-0----||
|--0-0-0-0-0-0-2-2-2-2-2-2-2-2--2-2-2-2-2-2-4--------------------||
|--------------0-0-0-0-0-0-0-0-----------------------------------||

      Play that 4 times


Chorus
2:05-2:22

F#m  G
You, soft and only

F#m  G
You, lost and lonely

F#m  G
You, strange as angels

D
Dancing in the deepest oceans

E
Twisting in the water, you're just like a dream


(**NOTE** I'm giving out chords for the chorus because I
haven't quite figured out the exact strumming pattern yet.)

Bridge
2:22-2:47
Synth/Keyboard translated to guitar
|------------------------------------------|
|--17-17-17-14--------------------14-------|
|--------------14--14-16-16-14-16----------|
|------------------------------------16----|
|------------------------------------------|
|------------------------------------------|

|------------------------------------------------------|
|--17-17-17-14--------------------14-15-14-15-17-------|
|--------------14--14-16-16-14-16----------------14----|
|------------------------------------------------------|
|------------------------------------------------------|
|------------------------------------------------------|

|--17-17-17-19-21--17-19-17-19-17-19---|
|--------------------------------------|
|--------------------------------------|
|--------------------------------------|
|--------------------------------------|
|--------------------------------------|

|------------------------------------------------|
|--15-14-15-14--------------15-14-15-14----------|
|--------------14-14--------------------14-14----|
|------------------------------------------------|
|------------------------------------------------|
|------------------------------------------------|

Guitar 1
|----------------------------------------------------------------||
|--2-2-2-2-2-2--------------------------------2-2-2-2-2-2-2-2----||
|--2-2-2-2-2-2-1-1-1-1-1-1-1-1--4-4-4-4-4-4-4-3-3-3-3-3-3-3-3----||
|--2-2-2-2-2-2-2-2-2-2-2-2-2-2--4-4-4-4-4-4-4-0-0-0-0-0-0-0-0----||
|--0-0-0-0-0-0-2-2-2-2-2-2-2-2--2-2-2-2-2-2-4--------------------||
|--------------0-0-0-0-0-0-0-0-----------------------------------||

      Play that 4 times


Guitar 2
2:41-2:47
|-------------------------------------------------------------|
|--14-14-14-12-12-10--9-9-9-7-7-5--3-3-2-3-2------------------|
|--------------------------------------------4-4-4-2-2-4-4----|
|-------------------------------------------------------------|
|-------------------------------------------------------------|
|-------------------------------------------------------------|


Verse 3
2:48-3:13
Guitar 1
|----------------------------------------------------------------||
|--2-2-2-2-2-2--------------------------------2-2-2-2-2-2-2-2----||
|--2-2-2-2-2-2-1-1-1-1-1-1-1-1--4-4-4-4-4-4-4-3-3-3-3-3-3-3-3----||
|--2-2-2-2-2-2-2-2-2-2-2-2-2-2--4-4-4-4-4-4-4-0-0-0-0-0-0-0-0----||
|--0-0-0-0-0-0-2-2-2-2-2-2-2-2--2-2-2-2-2-2-4--------------------||
|--------------0-0-0-0-0-0-0-0-----------------------------------||

      Play that 4 times


Guitar 2
3:07-3:13
|-------------------------------------------------------------|
|--14-14-14-12-12-10--9-9-9-7-7-5--3-3-2-3-2------------------|
|--------------------------------------------4-4-4-2-2-4-4----|
|-------------------------------------------------------------|
|-------------------------------------------------------------|
|-------------------------------------------------------------|


Chorus
Guitar 1
3:13-3:28

F#m  G
You, soft and only

F#m  G
You, lost and lonely

F#m  G                D
You, just like heaven


That's pretty much it. It's a simple song, yet loads of fun to play.
Composição de Boris Williams / Jason Cooper / Laurence Tolhurst / Paul Thomson / Porl Thompson / Robert Smith / Simon Gallup
8 reproducciones
    • ½ Tono
    • A
    • Bb
    • B
    • C
    • Db
    • D
    • Eb
    • E
    • F
    • F#
    • G
    • Ab
  • Adicionar à lista

    0 comentarios

    Ver todos os comentários

    ¿Conseguiste tocar?

    0 Tocaram 0 Ainda não

    Grave um vídeo tocando Just Like Heaven e nos envie!

    00:00 / 00:00
    outros vídeos desta música
    repetir qualidade Automático
    Outros vídeos desta música
    00:00 / 00:00
    Automático
    OK