Cifra Club

Aprenda

Just Like Heaven

The Cure

Tablatura: Versão 6 (guitarra)
tono: D
try this tab.            /=slide
Tabber: John
Each Section is considered one measure
Intro: 8 measures

INTRO
The drums will start the song with the bass folling right after:
Bass
|--------------------------------|
|--------------------------------|
|0-0-00----------2-2-22/5-5-5-5-5|(Repeat this for 8 measures)
|-------0-0-0-0-0----------------|

Then the lead guitar will come in the second measure with:
Lead Guitar
|------------------------------|
|------------------------------|
|------------------------------|(Repeat this for three measures)
|------------------------------|
|4-4-44----------5-5-55/9-9-9-9|
|-------4-4-4-4-4--------------|

Then the rhythm guitar comes in the third measure
Rhythm Guitar
|------------------------|
|2--------------3-------3|
|2------1-------4-------2|(Repeat this for five measures-rhythm these
|2------2-------4-------4| chords however you want)
|-------2-------2-------5|
|------------------------|

There is also a synth/strings keyboard that comes in the fourth measure. The lead guitar 
in again in the fifth measure:
Lead guitar
|-----------------------------------------|
|141414-12-12-10--9-9-7-7-5-33-2h3-0-0---0|
|-------------------------------------2-2-|(Repeat this 2 times)
|-----------------------------------------|
|-----------------------------------------|
|-----------------------------------------|
-
|--------------------------------------------------------|
|2-2-3-3-5--7-7-9-9-10--12-12-14-14-15-15/17-17-15--15-15|
|--------------------------------------------------------|(Play this once)
|--------------------------------------------------------|
|--------------------------------------------------------|
|--------------------------------------------------------|
-
|-----------------------------------------|
|141414-12-12-10--9-9-7-7-5-33-2h3-0-0---0|
|-------------------------------------2-2-|(Play this 1 more time to finish
|-----------------------------------------| off the 8 measures)
|-----------------------------------------|
|-----------------------------------------|
____________________________________________________________________________

VERSE#1
Bass
|--------------------------------|
|--------------------------------|
|0-0-00----------2-2-22/5-5-5-5-5|(Repeat this 4 times for the full verse)
|-------0-0-0-0-0----------------|

Rhythm Guitar
|------------------------|
|2--------------3-------3|
|2------1-------4-------2|(Repeat this 4 times for the full verse)
|2------2-------4-------4|
|-------2-------2-------5|
|------------------------|

Lead guitar
|------------------------|
|2-----------------------|
|2------1-------4-------7|(Repeat this 4 times, but play different
|2------2-------4-------7| from the rhythm guitar)
|-------2-------2-------5|
|------------------------|
____________________________________________________________________________

BRIDGE
Bass
|--------------------------------|
|--------------------------------|
|0-0-00----------2-2-22/5-5-5-5-5|(Repeat this for 2 times)
|-------0-0-0-0-0----------------|

Rhythm Guitar
|------------------------|
|2--------------3-------3|
|2------1-------4-------2|(Repeat this 2 times)
|2------2-------4-------4|
|-------2-------2-------5|
|------------------------|

Lead guitar
|-----------------------------------------|
|141414-12-12-10--9-9-7-7-5-33-2h3-0-0---0|
|-------------------------------------2-2-|(Repeat this 2 times)
|-----------------------------------------|
|-----------------------------------------|
|-----------------------------------------|
____________________________________________________________________________

VERSE#2
Bass
|--------------------------------|
|--------------------------------|
|0-0-00----------2-2-22/5-5-5-5-5|(Repeat this 4 times for the full verse)
|-------0-0-0-0-0----------------|

Rhythm Guitar
|------------------------|
|2--------------3-------3|
|2------1-------4-------2|(Repeat this 4 times for the full verse)
|2------2-------4-------4|
|-------2-------2-------5|
|------------------------|

Lead guitar
|------------------------|
|2-----------------------|
|2------1-------4-------7|(Repeat this 4 times, but play different
|2------2-------4-------7| from the rhythm guitar)
|-------2-------2-------5|
|------------------------|
____________________________________________________________________________

CHORUS
Bass
|--------------------------------------------------|
|--------------------------------------------------|(Pt.1)
|--------------------------------------------------|
|2-2-22-3-3-3-3-3-2-2-22-3-3-3-3-3-2-2-22-3-3-3-3-3|
-
|---------------------------------|
|---------------------------------|(Pt.2, play both once)
|5-5-55-5-5-5-5-5-5-5-55-5-5-5-5-5|
|---------------------------------|

Rhythm Guitar
|--------------------------------------------------|
|--------------------------------------------------|
|--------------------------------------------------|(Pt.1)
|4-4-44-5-5-5-5-5-4-4-44-5-5-5-5-5-4-4-44-5-5-5-5-5|
|4-4-44-5-5-5-5-5-4-4-44-5-5-5-5-5-4-4-44-5-5-5-5-5|
|2-2-22-3-3-3-3-3-2-2-22-3-3-3-3-3-2-2-22-3-3-3-3-3|
-
|---------------------------------|
|---------------------------------|
|---------------------------------|(Pt.2, play both once)
|7-7-77-7-7-7-7-7-7-7-77-7-7-7-7-7|
|7-7-77-7-7-7-7-7-7-7-77-7-7-7-7-7|
|5-5-55-5-5-5-5-5-5-5-55-5-5-5-5-5|
|---------------------------------|

Lead Guitar
|-----0------0----0---------------|
|----10-----10---10-12-----12---12|
|----11-----11---11-12-----12---12|(Pt.1)
|111111-111111-1111-12-121212 1212|
|---------------------------------|
|---------------------------------|
-
|10-----10------10--|
|10-----10------10--|
|11-11111111-11-1111|(Pt.2, play both once and play Pt.2 4 times)
|-------------------|
|-------------------|
|-------------------|
____________________________________________________________________________

SOLO
The solo is originally with a piano-keyboard but I tabbed it to fit the guitar. Doesn't 
which guitar but I play the rhythm so I tabbed it for the rhythm guitar.
Bass
|--------------------------------|
|--------------------------------|
|0-0-00----------2-2-22/5-5-5-5-5|(Repeat this 4 times for the full solo)
|-------0-0-0-0-0----------------|

Rhythm Guitar
|5-5-7-7-57-9--------5--5-5-7-7-57-9--109-10--12--------------9|
|----------------5555---------------------------10--101010-12--|
|-------------7------------------------------------------------|
|--------------------------------------------------------------|
|--------------------------------------------------------------|
|--------------------------------------------------------------|
-continued
|------------------------------------------------------------------|
|1012-1012-1012--109109--------------------------------------------|
|-----------------------10-10/12-12-10--9-9-7-7-5--3-3-2h3-0-0----0|
|--------------------------------------------------------------2-2-|
|------------------------------------------------------------------|
|------------------------------------------------------------------|

Lead Guitar
Lead guitar
|------------------------|
|2-----------------------|
|2------1-------4-------7|(Repeat this 4 times-play exactly like verse#1
|2------2-------4-------7| and verse#2)
|-------2-------2-------5|
|------------------------|
____________________________________________________________________________

VERSE#3
Bass
|--------------------------------|
|--------------------------------|
|0-0-00----------2-2-22/5-5-5-5-5|(Repeat this 4 times for the full verse)
|-------0-0-0-0-0----------------|

Rhythm Guitar
|------------------------|
|2--------------3-------3|
|2------1-------4-------2|(Repeat this 4 times for the full verse)
|2------2-------4-------4|
|-------2-------2-------5|
|------------------------|

Lead guitar
|------------------------|
|2-----------------------|
|2------1-------4-------7|(Repeat this 4 times, but play different
|2------2-------4-------7| from the rhythm guitar)
|-------2-------2-------5|
|------------------------|
____________________________________________________________________________

CHORUS
Bass
|--------------------------------------------------|
|--------------------------------------------------|(Pt.1)
|--------------------------------------------------|
|2-2-22-3-3-3-3-3-2-2-22-3-3-3-3-3-2-2-22-3-3-3-3-3|
-
|-|
|-|
|5|
|-|

Rhythm Guitar
|--------------------------------------------------|
|--------------------------------------------------|
|--------------------------------------------------|(Pt.1)
|4-4-44-5-5-5-5-5-4-4-44-5-5-5-5-5-4-4-44-5-5-5-5-5|
|4-4-44-5-5-5-5-5-4-4-44-5-5-5-5-5-4-4-44-5-5-5-5-5|
|2-2-22-3-3-3-3-3-2-2-22-3-3-3-3-3-2-2-22-3-3-3-3-3|
-
|-|
|-|
|-|(End with this)
|7|
|7|
|5|
|-|

Lead Guitar
|-----0------0----0---------------|
|----10-----10---10-12-----12---12|
|----11-----11---11-12-----12---12|(Pt.1)
|111111-111111-1111-12-121212 1212|
|---------------------------------|
|---------------------------------|
-
|10|
|10|
|11|(End with this)
|--|
|--|
|--|
____________________________________________________________________________

If there is any questions or concerns my Myspace email adress is
Interpol-F*
Add me if you want.
Composição de Boris Williams / Jason Cooper / Laurence Tolhurst / Paul Thomson / Porl Thompson / Robert Smith / Simon Gallup
3 reproducciones
    • ½ Tono
    • A
    • Bb
    • B
    • C
    • Db
    • D
    • Eb
    • E
    • F
    • F#
    • G
    • Ab
  • Adicionar à lista

    0 comentarios

    Ver todos os comentários

    ¿Conseguiste tocar?

    0 Tocaram 0 Ainda não

    Grave um vídeo tocando Just Like Heaven e nos envie!

    00:00 / 00:00
    outros vídeos desta música
    repetir qualidade Automático
    Outros vídeos desta música
    00:00 / 00:00
    Automático
    OK