Cifra Club

Aprenda

Just Like Heaven

The Cure

Tablatura: Versão 8 (guitarra)
tono: D
-----------------------------------------|
Tabbed by:Jordan Wolf
Email:*

Tuning:standard (EADGBe)

intro (Bass)
e|---------------------------------------------------------------------------|
B|---------------------------------------------------------------------------|
G|---------------------------------------------------------------------------|
D|---------------------------------------------------------------------------|
A|-0-0-0-0-0-----------2-2-2-2-2--5-5-5-5-5----------------------------------|
E|-----------0-0-0-0-0-------------------------------------------------------|

Then guitar 1 comes in
e|---------------------------------------------------------------------------|
B|---------------------------------------------------------------------------|
G|---------------------------------------------------------------------------|
D|-------------------------------4-4-4-4-4-----------------------------------|
A|-4-4-4-4-4-----------5-5-5-5-5---------------------------------------------|
E|-----------4-4-4-4-4-------------------------------------------------------|

then guitar 2 comes in with these cords
A                 E          B         D
e|-0-0-0-0-0-------------2-2-2-2-2--2-2-2-2-2--------------------------------|
B|-2-2-2-2-2--0-0-0-0-0--3-3-3-3-3--3-3-3-3-3--------------------------------|
G|-2-2-2-2-2--1-1-1-1-1--4-4-4-4-4--2-2-2-2-2--------------------------------|
D|-2-2-2-2-2--2-2-2-2-2--4-4-4-4-4-------------------------------------------|
A|-0-0-0-0-0--2-2-2-2-2--2-2-2-2-2-------------------------------------------|
E|---------------------------------------------------------------------------|

first solo (Guitar 1)
e|---------------------------------------------------------------------------|
B|---------------------------------------------------------------------------|
G|-18-18-16-16-14------------------------------------------------------------|
D|----------------18-18-16-16-14--12-12-11-12-11-----------------------------|
A|-----------------------------------------------14-14-12-14-14--------------|
E|---------------------------------------------------------------------------|

e|---------------------------------------------------------------------------|
B|---------------------------------------------------------------------------|
G|-18-18-16-16-14------------------------------------------------------------|
D|----------------18-18-16-16-14--12-12-11-12-11-----------------------------|
A|-----------------------------------------------14-14-12-14-14--------------|
E|---------------------------------------------------------------------------|

e|---------------------------------------------------------------------------|
B|---------------------------------------------------------------------------|
G|------------------------------16-16-18-18-19-21-21-19-19-18----------------|
D|---------------16-16-18-18-19----------------------------------------------|
A|-16-16-17-17-19------------------------------------------------------------|
E|---------------------------------------------------------------------------|

e|---------------------------------------------------------------------------|
B|---------------------------------------------------------------------------|
G|-18-18-16-16-14------------------------------------------------------------|
D|----------------18-18-16-16-14--12-12-11-12-11-----------------------------|
A|-----------------------------------------------14-14-12-14-14--------------|
E|---------------------------------------------------------------------------|

Chorus (Guitar 1 & 2)
e|---------------------------------------------------------------------------|
B|---------------------------------------------------------------------------|
G|---------------------------------------------------------------------------|
D|-4-4-4-4-4--7-7-7-7-7--4-4-4-4-4--7-7-7-7-7--4-4-4-4-4--7-7-7-7-7----------|
A|-4-4-4-4-4--7-7-7-7-7--4-4-4-4-4--7-7-7-7-7--4-4-4-4-4--7-7-7-7-7----------|
E|-2-2-2-2-2--5-5-5-5-5--2-2-2-2-2--5-5-5-5-5--2-2-2-2-2--5-5-5-5-5----------|

Chorus cont.              Second solo
e|---------------------|-12-9---------------------9----12-12-12-12-12--12-9--|
B|---------------------|------10---12-12-10-12-12--------------------------10|
G|-7-7-7-7-7-7-7-7-7-7-|---------------------------11------------------------|
D|-7-7-7-7-7-7-7-7-7-7-|-----------------------------------------------------|
A|-5-5-5-5-5-5-5-5-5-5-|-----------------------------------------------------|
E|---------------------|-----------------------------------------------------|

Second solo cont.
e|----------------9-10-9------17-17-17-17-19-21--17-19-17-19-17-19-----------|
B|-12-12-10-12-12------------------------------------------------------------|
G|-----------------------11--------------------------------------------------|
D|---------------------------------------------------------------------------|
A|---------------------------------------------------------------------------|
E|---------------------------------------------------------------------------|

Second solo cont. once more
e|-9-10-9------9-10-9---------------------------------------------------------|
B|--------10----------10-/----------------------------------------------------|
G|----------------------------------------------------------------------------|
D|----------------------------------------------------------------------------|
A|----------------------------------------------------------------------------|
E|----------------------------------------------------------------------------|

Play list:

intro
first solo
verse
second solo (same as first one) (not shown)
verse
chorus
third solo
verse
chorus
end on chorus (Only hit the third chord in the sequence once)

I have this tab near perfect but if there is any questions, comments, or corrections 
me and tell
me so I can play it right.

| /  slide up
| \  slide down
| h  hammer-on
| p  pull-off
| ~  vibrato
| +  harmonic
| x  Mute note
===============================================================================
Composição de Boris Williams / Jason Cooper / Laurence Tolhurst / Paul Thomson / Porl Thompson / Robert Smith / Simon Gallup
1 reproducciones
    • ½ Tono
    • A
    • Bb
    • B
    • C
    • Db
    • D
    • Eb
    • E
    • F
    • F#
    • G
    • Ab
  • Adicionar à lista

    0 comentarios

    Ver todos os comentários

    ¿Conseguiste tocar?

    0 Tocaram 0 Ainda não

    Grave um vídeo tocando Just Like Heaven e nos envie!

    00:00 / 00:00
    outros vídeos desta música
    repetir qualidade Automático
    Outros vídeos desta música
    00:00 / 00:00
    Automático
    OK