Cifra Club

Bowl For Two

The Expendables

Cifrado: Versão 2 (guitarra y guitarra eléctrica)
tono: Ab
Tabbed by: Dustin Conlon
Email:its a secret

Tuning:regular
Intro
e|-----------------------------------------8---8-----------------------------|
B|-----------------------------------------9---9------9h-11-9-----------9----|
G|-----------------------------------------10--10--------------10-8-10----10-|
D|-----------------------------------------10--------------------------------|
A|--------------------3-6-3-3-h6-p3-3-6/8--8---------------------------------|
E|--4-6-4-4-h6-p4-4-6--------------------------------------------------------|

e|------------------------------------------8--------------------------------|
B|------------------------------------------9--------------------------------|
G|------------------------------------------10-------------------------------|
D|------------------------------------------10-------------------------------|
A|----------------------3-6-3-3-h6-p3-3-6/8-8---------------------6~~--------|
E|--4-6-4-4-h6-p4-4-6---------------------------------6-h8-p6--4-------------|
Chorus
e|---4----------8------11--p8------------------------------------------------|
B|---4----------9------9-----------------------------------------------------|
G|---5----------10-----10----------------------------------------------------|
D|---6----------10-----10----------------------------------------------------|
A|---6----------8------8-----------------------------------------------------|
E|---4-----------------------------------------------------------------------|
Verses
e|---4-----------3----------8------------------------------------------------|
B|---4-----------4----------9------------------------------------------------|
G|---5-----------5----------10-----------------------------------------------|
D|---6-----------5----------10-----------------------------------------------|
A|---6-----------3----------8------------------------------------------------|
E|---4-----------------------------------------------------------------------|
Bridge-- "so please dont run away..."
e|--4~----------8------------4-----------6~----------------------------------|
B|--6~----------9------------6-----------8~----------------------------------|
G|--6~----------10-----------6-----------8~----------------------------------|
D|--6~----------10-----------6-----------8~----------------------------------|
A|--4~----------8------------4-----------6~----------------------------------|
E|---------------------------------------------------------------------------|
The Amazing SOLO
e|--7b8--6-----6-8p6-----------------------13-------------11-----------------|
B|----------9---------9--6----13~~-----13------11-11/13~------13\11--11--11--|
G|---------------------------------------------------------------------------|
D|---------------------------------------------------------------------------|
A|---------------------------------------------------------------------------|
E|---------------------------------------------------------------------------|

e|------------------------------------------8h11p8---11/13---13-------13-13~-|
B|--13--------------------10h9h8----8h9h10------------------------13---------|
G|------10--11---10h9h8------------------------------------------------------|
D|---------------------------------------------------------------------------|
A|---------------------------------------------------------------------------|
E|---------------------------------------------------------------------------|

e|--16-18-20-18-16--------16-16--11--------11--------------------------------|
B|-------------------18---------------13-------13--------11--13p11------11---|
G|---------------------------------------------------13-------------13-------|
D|---------------------------------------------------------------------------|
A|---------------------------------------------------------------------------|
E|---------------------------------------------------------------------------|

e|--------------13~~~--------------------------------------------------------|
B|---------------------------------------------------------------------------|
G|---13---10-----------------------------------------------------------------|
D|---------------------------------------------------------------------------|
A|---------------------------------------------------------------------------|
E|---------------------------------------------------------------------------|

 Then play verse again, then the chorus, then play the outro which is the same as the
basically. Figure out the strumming on your own, but here is all the info and notes you
to learn the song. Have fun, and remember, this is just a song, so dont take the lyrics 
seriously...unless you want to.

  b  bend up
| /  slide up
| \  slide down
| h  hammer-on
| p  pull-off
| ~  vibrato
| +  harmonic
| x  Mute note
===============================================================================
Compositor não encontrado.
8 vistas
    • ½ Tono
    • A
    • Bb
    • B
    • C
    • Db
    • D
    • Eb
    • E
    • F
    • F#
    • G
    • Ab
  • Agregar a la lista

    0 comentarios

    Ver todos los comentarios

    ¿Lograste tocar?

    0 Tocaron 0 Aún no

    ¡Graba un video tocando Bowl For Two y envíanoslo!

    00:00 / 00:00
    Outros vídeos desta música
    Repetir Calidad Automático
    Outros vídeos desta música
    00:00 / 00:00
    Automático
    OK