Cifra Club

Bad Reputation

Thin Lizzy

Tab de bajo: Versão 3
Note: The dead notes are merely optional. Play around with them to make it your own. 

Tempo=120

During the second bar of each chorus-like riff, it goes to 5/4 time, then back to 4/4 with the first bar.

     S S S S S S E  E  S S S S S S    S S S S S S S S S S S S S S S S  
G||--------------------------------|----------------------------------|
D||--------------------------------|----------------------------------|
A||--------------4-----------------|----------------------------------|
E||--6-6-6-6-6-6----6--x-x-x-x-x-x-|--x-x-x-x-x-x-x-x-x-x-x-x-x-x-x-x-|


  S S S S S S E  E  S S S S S S    S S S S S S S S S S S S S S S S  
--------------------------------|----------------------------------|
--------------------------------|----------------------------------|
--------------4-----------------|----------------------------------|
--6-6-6-6-6-6----6--x-x-x-x-x-x-|--x-x-x-x-x-x-x-x-x-x-x-x-x-x-x-x-|


  S S S S S S E  E  S S S S S S    S S S S S S S S S S S S S S S S  
--------------------------------|----------------------------------|
--------------------------------|----------------------------------|
--------------4-----------------|----------------------------------|
--6-6-6-6-6-6----6--x-x-x-x-x-x-|--x-x-x-x-x-x-x-x-x-x-x-x-x-x-x-x-|


  S S S S S S E  E  S S S S S S    S S S S S S S S S S S S S S S S  
--------------------------------|----------------------------------|
--------------------------------|----------------------------------|
--------------4-----------------|----------------------------------|
--6-6-6-6-6-6----6--x-x-x-x-x-x-|--x-x-x-x-x-x-x-x-x-x-x-x-x-x-x-x-|


  E.  S E  E  E  S S S S E     S S S S E  S S S S S S E  E  S S S S  
----------------------------|---------------------------------------|
----------------------------|---------------------------------------|
-------------------------6--|----------4--------------2--1----------|
--4---4-4--2--4--x-x-x-x----|--x-x-x-x----x-x-x-x-x-x-------x-x-x-x-|


  E.  S E  E  E  S S S S E     S S S S E  S S S S S S E  E  S S S S  
----------------------------|---------------------------------------|
----------------------------|---------------------------------------|
-------------------------6--|----------4--------------2--1----------|
--4---4-4--2--4--x-x-x-x----|--x-x-x-x----x-x-x-x-x-x-------x-x-x-x-|


  E.  S E  E  E  S S S S E     S S S S E  S S S S S S E  E  S S S S  
----------------------------|---------------------------------------|
----------------------------|---------------------------------------|
-------------------------6--|----------4--------------2--1----------|
--4---4-4--2--4--x-x-x-x----|--x-x-x-x----x-x-x-x-x-x-------x-x-x-x-|


  E.  S E  E  E  S S S S E     S S S S E  S S S S S S E  E  S S S S  
----------------------------|---------------------------------------|
----------------------------|---------------------------------------|
-------------------------6--|----------4--------------2--1----------|
--4---4-4--2--4--x-x-x-x----|--x-x-x-x----x-x-x-x-x-x-------x-x-x-x-|


  S S S S S S E  E  S S S S E     E  S S S S E  E  E  E  E   
-------------------------------|----------------------------|
--------------4----------------|-------------4--------------|
--6-6-6-6-6-6----6--6-6-6-6-4--|--6--6-6-6-6----6--4-----4--|
-------------------------------|----------------------6-----|


  S S S S S S E  E  S S S S E     E  S S S S E  E  E  E  E   
-------------------------------|----------------------------|
--------------4----------------|-------------4--------------|
--6-6-6-6-6-6----6--6-6-6-6-4--|--6--6-6-6-6----6--4-----4--|
-------------------------------|----------------------6-----|


  S S S S S S E  E  S S S S E     E  S S S S E  E  E  E  E   
-------------------------------|----------------------------|
--------------4----------------|-------------4--------------|
--6-6-6-6-6-6----6--6-6-6-6-4--|--6--6-6-6-6----6--4-----4--|
-------------------------------|----------------------6-----|


  S S S S S S E  E  S S S S E     E  S S S S E  E  E  E  E   
-------------------------------|----------------------------|
--------------4----------------|-------------4--------------|
--6-6-6-6-6-6----6--6-6-6-6-4--|--6--6-6-6-6----6--4-----4--|
-------------------------------|----------------------6-----|


  E  S E.  E  E  Q.        W                   E  S E.  E  E  Q.      
------------------------|-------------------|------------------------|
------------------------|-------------------|------------------------|
--6--6-6---4--6---------|-------------------|--6--6-6---4--6---------|
------------------------|-------------------|------------------------|


  W                   E  S E.  E  E  Q.        W                 
-------------------|------------------------|-------------------|
-------------------|------------------------|-------------------|
-------------------|--6--6-6---4--6---------|-------------------|
-------------------|------------------------|-------------------|


  E  S E.  E  E  Q.        W                   E.  S E  E  E  S S S S E   
------------------------|-------------------|----------------------------|
------------------------|-------------------|----------------------------|
--6--6-6---4--6---------|-------------------|-------------------------6--|
------------------------|-------------------|--4---4-4--2--4--x-x-x-x----|


  S S S S E  S S S S S S E  E  S S S S    E.  S E  E  E  S S S S E   
---------------------------------------|----------------------------|
---------------------------------------|----------------------------|
----------4--------------2--1----------|-------------------------6--|
--x-x-x-x----x-x-x-x-x-x-------x-x-x-x-|--4---4-4--2--4--x-x-x-x----|


  S S S S E  S S S S S S E  E  S S S S    E.  S E  E  E  S S S S E   
---------------------------------------|----------------------------|
---------------------------------------|----------------------------|
----------4--------------2--1----------|-------------------------6--|
--x-x-x-x----x-x-x-x-x-x-------x-x-x-x-|--4---4-4--2--4--x-x-x-x----|


  S S S S E  S S S S S S E  E  S S S S    E.  S E  E  E  S S S S E   
---------------------------------------|----------------------------|
---------------------------------------|----------------------------|
----------4--------------2--1----------|-------------------------6--|
--x-x-x-x----x-x-x-x-x-x-------x-x-x-x-|--4---4-4--2--4--x-x-x-x----|


  S S S S E  S S S S S S E  E  S S S S    E.  E.  E.  E.  E  E   
---------------------------------------|------------------------|
---------------------------------------|------------------------|
----------4--------------2--1----------|--4---4-----------------|
--x-x-x-x----x-x-x-x-x-x-------x-x-x-x-|----------6---6---4--4--|


  E.  E.  E.  E.  E  E     E.  E.  E.  E.  E  E     E  S S E  S S E  E  S S E   
------------------------|------------------------|-----------------------------|
------------------------|------------------------|---------4---------4------4--|
--4---4-----------------|--4---4-----------------|-----------------------------|
----------6---6---4--4--|----------6---6---4--4--|--2--2-2----2-2-2-----2-2----|


  E.  E.  E.  E.  E  E     E.  E.  E.  E.  E  E     E.  E.  E.  E.  E  E   
------------------------|------------------------|------------------------|
------------------------|------------------------|------------------------|
--4---4-----------------|--4---4-----------------|--4---4-----------------|
----------6---6---4--4--|----------6---6---4--4--|----------6---6---4--4--|


  E  S S E  S S E  E  S S E     E.  E.  E.  E.  E  E     E.  E.  E.  E.  E  E   
-----------------------------|------------------------|------------------------|
---------4---------4------4--|------------------------|------------------------|
-----------------------------|--4---4-----------------|--4---4-----------------|
--2--2-2----2-2-2-----2-2----|----------6---6---4--4--|----------6---6---4--4--|


  E.  E.  E.  E.  E  E     E  S S E  S S E  E  S S E     E.  E.  E.  E.  E  E   
------------------------|-----------------------------|------------------------|
------------------------|---------4---------4----4----|------------------------|
--4---4-----------------|-----------------------------|--4---4-----------------|
----------6---6---4--4--|--2--2-2----2-2-2-----2---2--|----------6---6---4--4--|


  E.  E.  E.  E.  E  E     E.  E.  E.  E.  E  E     E  S S E  S S E  E  S S E   
------------------------|------------------------|-----------------------------|
------------------------|------------------------|---------4---------4------4--|
--4---4-----------------|--4---4-----------------|-----------------------------|
----------6---6---4--4--|----------6---6---4--4--|--2--2-2----2-2-2-----2-2----|


  E.  S E  E  E  Q    E     Q    E  Q.     E  E  Q     
-------------------------|----------------------------|
-------------------------|----------------------------|
--6---6-6--4--6----------|----------------------------|
----------------------6--|-------4---------2--1-------|


  E.  S E  E  E  Q    E     Q    E  Q.     E  E  Q     
-------------------------|----------------------------|
-------------------------|----------------------------|
--6---6-6--4--6----------|----------------------------|
----------------------6--|-------4---------2--1-------|


  E.  S E  E  E  Q    E     Q    E  Q.     E  E  Q     
-------------------------|----------------------------|
-------------------------|----------------------------|
--6---6-6--4--6----------|----------------------------|
----------------------6--|-------4---------2--1-------|


  E.  S E  E  E  Q    E     Q    E  Q.     E  E  Q     
-------------------------|----------------------------|
-------------------------|----------------------------|
--6---6-6--4--6----------|----------------------------|
----------------------6--|-------4---------2--1-------|


  S S S S S S E  E  S S S S E     E  S S S S E  E  E  E  E   
-------------------------------|----------------------------|
--------------4----------------|-------------4--------------|
--6-6-6-6-6-6----6--6-6-6-6-4--|--6--6-6-6-6----6--4-----4--|
-------------------------------|----------------------6-----|


  S S S S S S E  E  S S S S E     E  S S S S E  E  E  E  E   
-------------------------------|----------------------------|
--------------4----------------|-------------4--------------|
--6-6-6-6-6-6----6--6-6-6-6-4--|--6--6-6-6-6----6--4-----4--|
-------------------------------|----------------------6-----|


  S S S S S S E  E  S S S S E     E  S S S S E  E  E  E  E   
-------------------------------|----------------------------|
--------------4----------------|-------------4--------------|
--6-6-6-6-6-6----6--6-6-6-6-4--|--6--6-6-6-6----6--4-----4--|
-------------------------------|----------------------6-----|


  S S S S S S E  E  S S S S E     E  S S S S E  E  E  E  E   
-------------------------------|----------------------------|
--------------4----------------|-------------4--------------|
--6-6-6-6-6-6----6--6-6-6-6-4--|--6--6-6-6-6----6--4-----4--|
-------------------------------|----------------------6-----|


  E  E  E  E  E  E  E  E     E  E  E  E  E  Q    E     E  E  E  E  E  E  E  E   
--------------------------|-------------------------|--------------------------|
--------------------------|-------------------------|--------------------------|
--6--6-----4--6--6-----4--|--6--6-----4--6--4-------|--6--6-----4--6--6-----4--|
--------------------------|-------------------------|--------------------------|


  Repeat and Fade                                                          
  E               E  E  E  E  Q    E                                       
--------------------------------------|-----|-----|-----|-----|-----|-----|
--------------------------------------|-----|-----|-----|-----|-----|-----|
--6---------------6-----4--6--4-------|-----|-----|-----|-----|-----|-----|
--------------------------------------|-----|-----|-----|-----|-----|-----|


-----|-----||
-----|-----||
-----|-----||
-----|-----||




Duration Legend
---------------
W - whole
H - half
Q - quarter
E - 8th
S - 16th
T - 32nd
X - 64th
. - note dotted


Tablature Legend
----------------
L - tied note
x - dead note
(n) - ghost note
> - accentuded note
NH - natural harmonic
AH - artificial harmonic
TH - tapped harmonic
SH - semi harmonic
PH - pitch harmonic
h - hammer on
p - pull off
b - bend
br - bendRelease
pb - preBend
pbr - preBendRelease
brb - bendReleaseBend
\n/ - tremolo bar dip
\n - tremolo bar dive
-/n - tremolo bar Release up
/n\ - tremolo bar inverted dip
/n - tremolo bar return
-\n - tremolo bar Release down
S - shift slide
s - legato slide
/ -  slide into from below or out of upwards
\ -  slide into from above or out of downwards
~ - vibrato
W - wide vibrato
tr - trill
TP - tremolo picking
T - tapping
S - slap
P - pop
< - fade in
^ - brush up
v - brush down
Composición de Brian Downey / Phil Lynott / Scott Gorham

0 comentarios

Ver todos los comentarios

¿Lograste tocar?

0 Tocaron 0 Aún no

¡Graba un video tocando Bad Reputation y envíanoslo!

00:00 / 00:00
Outros vídeos desta música
Repetir Calidad Automático
Outros vídeos desta música
00:00 / 00:00
Automático
OK