Cifra Club

Bad Reputation

Thin Lizzy

Tab de bajo: Versão 2
Tabbed By : BillyBass
e-mail: *

Tuning:Standard (EADG)
Waz playn this on guitar hero and decided it had 2 b tabbed XD
this is (i think) spot on...im not gonna put in all the muted notes coz they annoy me 
u shud b able 2 work it out urself by listening. Its a pretty ez song but is pretty cool 2
ne probz, jus email me

Intro
G|----------|
D|------4---|
A|6-666---6-|
E|----------| x4

Chorus
G|------------------|
D|------------------|
A|-----------6-4-21-|
E|4-444-2-4---------| x4

Verse
G|--------------------------------|
D|------4---------------4---------|
A|6-666---6-666-4-6-666---6-4---4-|
E|----------------------------6---| x4

Break
G|----------------------------------------------------------|
D|---------Drums----------Drums---------Drums---------Drums-|
A|6-666-4-6------6-666-4-6------6-666-4-6---6-666-4-6-------|
E|----------------------------------------------------------|

Chorus
G|------------------|
D|------------------|
A|-----------6-4-21-|
E|4-444-2-4---------| x4

Guitar Solo
G|--------------------------------------------------|
D|-------------------------------------4-------4----|
A|4-44------4-44-------4-44-------------------------|
E|-----6-64------6-644------6-64---22-2--22-22--2---| x4
                                  |-------^---------|
Guitar Solo 2                   Only bit im not sure of
G|-----------------|
D|-----------------|
A|6-666-4-6--------|
E|----------6-4-21-| x4

Verse
G|--------------------------------|
D|------4---------------4---------|
A|6-666---6-666-4-6-666---6-4---4-|
E|----------------------------6---| x4

Outro
G|-------------------------|
D|-------------------------|
A|66-4h6-66-4h6-66-4h6-6-4-|
E|-------------------------| (Until the end)

And thats it....have fun :)

| /  slide up
| \  slide down
| h  hammer-on
| p  pull-off
| ~  vibrato
| +  harmonic
| x  Mute note
===============================================================================
Composición de Brian Downey / Phil Lynott / Scott Gorham

0 comentarios

Ver todos los comentarios

¿Lograste tocar?

0 Tocaron 0 Aún no

¡Graba un video tocando Bad Reputation y envíanoslo!

00:00 / 00:00
Outros vídeos desta música
Repetir Calidad Automático
Outros vídeos desta música
00:00 / 00:00
Automático
OK