Cifra Club

Bad Reputation

Thin Lizzy

Tab de bajo: Versão 4
Great song and some of you may recognize this becuase its 
on guitar hero!!

G|-----------------|
D|-----------------|
A|--------4--------| x4
E|-666666---6xxxxx-|

G|---------------------------|
D|---------------------------|
A|------------6xxx4xxx21xxx--| x4
E|-4-44-2-4xxx---------------|

G|-------------------------------|
D|-------4-------------4---------|
A|-666666-6666664666666-64-4-----| x4
E|------------------------6------|

G|----------------|
D|----------------|
A|-666666-4-6-----| x4
E|----------------|

G|---------------------------|
D|---------------------------|
A|------------6xxx4xxx21xxx--| x4
E|-4-44-2-4xxx---------------|

G|----------------|
D|----------------|
A|-4-44------h----| x3
E|-----6-66-46----|

Then after you have played the above riff 3 times play the riff 
below once.
G|----------------|
D|----------------|
A|-4-44------h-/9-| 
E|-----6-66-46----|

Then repeat the whole sequence again another 4 times

G|------------------------------|
D|------------------------------|
A|-6-66-4-6---------------------| x4
E|----------xxx6xxx4-xxx21xxxx--|

G|-------------------------------|
D|-------4-------------4---------|
A|-666666-6666664666666-64-4-----| x4
E|------------------------6------|

G|------------------|
D|-----h---h---h----|
A|-6--46--46--46-4--|
E|---6---6---6------|

Just repeat the above riff until the songs fades out
Composición de Brian Downey / Phil Lynott / Scott Gorham

0 comentarios

Ver todos los comentarios

¿Lograste tocar?

0 Tocaron 0 Aún no

¡Graba un video tocando Bad Reputation y envíanoslo!

00:00 / 00:00
Outros vídeos desta música
Repetir Calidad Automático
Outros vídeos desta música
00:00 / 00:00
Automático
OK