Cifra Club

Emerald

Thin Lizzy

Tab de bajo: Versão 2
Tune down one Semi-tone from: (E A D G) to (Eb Ab Db Gb)

Key:           |
> = Slide Up   |
< = Slide Down |
H = Hammer-on  |
P = Pull Off   |
B = Bend       |
V = Vibrato    |
S = Slap       |
P = Pop        |
----------------

Verse:

Gb|----------------------------------------------------------------------------------|
Db|---------------------------------------------------------------222222-------------|
Ab|-----3-2-0----3-----3-2-0---3--------3-2-0-----3-----3-2-0------------------------|
Eb|------------3-----------------3--------------3--------------3---------------------|


Gb|----------------------------------------------------------------------------------|
Db|----------------------------------------------------------------------------------|
Ab|-----3-2-0-----3-----3-2-0---3--------3-2-0-----3-----3-2-0----7777777777777--7---------7-------|
Eb|-----------------------------555555-3-----33333-5---------------------------------|

Gb|-----5555555----------------------------------------------------------------------|
Db|--------------7-5-7-5---5------------------------------------------5555---5-7-----|
Ab|----------------------7---7-5-7-5-3----------------3333333--5->-7-------7---------|
Eb|------------------------------------3-----33333-5---------------------------------|


Verse:

Gb|-------------------------------------------------------------------------------------|
Db|----------------------------------------------------------------------222222---------|
Ab|-----3-2-0-----3-----3-2-0---3--------3-2-0-----3-----3-2-0--------------------------|
Eb|-------------3-----------------3--------------3------------------3-------------------|


Gb|-------------------------------------------------------------------------------------|
Db|-------------------------------------------------------------------------------------|
Ab|-----3-2-0-----3-----3-2-0---3--------3-2-0-----3-----3-2-0------7777777777777--7---------7--------|
Eb|-------------------------------555555-3-----33333-5-----------------------------------|

Gb|-----5555555--------------------------------------------------------------------------|
Db|--------------7-5-7-5---5-------------------------------------------5555----5-7-------|
Ab|----------------------7---7-5-7-5-3----------------3333333--5->-7---------7-----------|
Eb|-------------------------------------3---33333-5--------------------------------------|


Bridge:

Gb|----------------5-------------7-------------5-------------7-------------------|
Db|-----777777777-----777777777-----777777777-----777777777----------------------|
Ab|------------------------------------------------------------------------------|
Eb|------------------------------------------------------------------------------|

Gb|----------------5-------------7-------------5-------------7->-9---------------|
Db|-----777777777-----777777777-----777777777-----777777777----------------------|
Ab|------------------------------------------------------------------------------|
Eb|------------------------------------------------------------------------------|


Before the solo the guitars play in harmony, you could immitate them...
Or improvise from the notes in the chorus.
To immitate the guitars here are the tabs :


Gb|--------------------------------------------------------------------------|
Db|--------9-10-9----9-----------------------9-10-9----9-------14------------|
Ab|-----12--------12---12-10-12-P-10------12--------12---12-10---------------|
Eb|----------------------------------12--------------------------------------|

Gb|--------------------------------------------------------------------------|
Db|-----12-14-15-14-12-14-12----12--------------------------12---------------|
Ab|--------------------------15----15-14-15-14-12--12-14-15----15----12------|
Eb|---------------------------------------------------------------15---------|

Gb|--------------------------------------------------------------------------|
Db|--------9-10-9----9---------------------9-10-9----9-------14--------------|
Ab|-----12--------12---12-10-12-P-10----12--------12---12-10-----------------|
Eb|----------------------------------12--------------------------------------|

Gb|--------------------------------------------------------------------------|
Db|-----12-14-15-14-12-14-12----12---------------------------12--------------|
Ab|--------------------------15----15-14-15-14-12--12-14-15-----15----12-----|
Eb|----------------------------------------------------------------15--------|

Play the chorus during the solo, don't forget you can allways improvise this, and then 
bars of the chorus to finish off.

Hope this helps somebody, cheers for reading it =]
Composición de Brian Downey / Brian Robertson / Phil Lynott / Scott Gorham

0 comentarios

Ver todos los comentarios

¿Lograste tocar?

0 Tocaron 0 Aún no

¡Graba un video tocando Emerald y envíanoslo!

00:00 / 00:00
Outros vídeos desta música
Repetir Calidad Automático
Outros vídeos desta música
00:00 / 00:00
Automático
OK