Cifra Club

Beautiful Day

U2

Cifrado: Versão 3 (guitarra y guitarra eléctrica)
tono: D
intro:A Bm D G D A (2x)

bridge:A Bm D G D A (2x)
       A Bm D G D A (4x)ou    B|-2-0-3-----3---]
                              G|-------4------2]
Chorus
A5 B5 D5 G5 D5 A5 (2x)


Bridge:A Bm D G D A (4x)ou    B|-2-0-3----3---}
                              G|-------4-----2}

Chorus
A5 B5 D5 G5 D5 A5 (2x)

Chorus2:F#m G D A (2x)ou

E|--9-9-9-7-9-7-9-10--10-10-10-10-10-10-10--10-10-10-9-9--10-9-7-9--5-7-9-7
B|---------------------8-8--8--8--8--8--8----------------------------------(2x)


A Bm D G D A ou

E|-----------7-7-2-2-2-2-2-3-3-3-3}
B|-2-0-3--------------------------}
G|-------4------------------------}

Bridge2 Em   D
Em  G  D (3x)

B|-2-0-3----3----}
G|-------4------2}

Chorus
A5 B5 D5 G5 D5 A5 (2x)

Chorus2:F#m G D A
E|--9-9-9-7-9-7-9-10--10-10-10-10-10-10-10--10-10-10-9-9-10-9-7-9--7-9-7}
B|--------------------8--8--8--8--8--8--8-------------------------------}

E|--9-9-9-7-9-7-9-10--10-10-10-10-10-10-10--10-10-10-9-9-10-9--7--9--7}
B|--------------------8--8--8--8--8--8--8-----------------------------}

bridge3(2x)
B|-5-5-5-3-3-3-7-7-7-3-3-3-3-3-3-3-7-7-7-7-7-7-5-5-5-5-5-5-5-5-5}
G|-6-6-6-4-4-4-7-7-7-4-4-4-4-4-4-4-7-7-7-7-7-7-6-6-6-6-6-6-6-6-6}
D|-7-7-7-4-4-4-7-7-7-5-5-5-5-5-5-5-7-7-7-7-7-7-7-7-7-7-7-7-7-7-7}
A|-7-7-7-2-2-2-5-5-5-5-5-5-5-5-5-5-5-5-5-5-5-5-7-7-7-7-7-7-7-7-7}     

E|-9-9-9-7-9-7-9-10--10-10-10-10-10-10-10--10-10-10-9-9-10--9--7-5}
B|-------------------8--8--8--8--8--8--8--------------------------}

E|-9-9-9-7-9-7-9-10--10-10-10-10-10-10-10--10-10-10-9-9-10-10-9-7-9--9-7-9-7}
B|-------------------8--8--8--8--8--8--8------------------------------------}

E|-------------------}-------------------3}
B|-2--3--7--0---7---5}-2--3--7--0----0-3--}
G|-------------------}-------------0------}
D|-------------------}--------------------}
A|-0--2--5------5----}-0--2--5------------}
E|----------3-------5}----------3---------}
Composición de Adam Clayton / Bono / Larry Mullen, Jr. / The Edge
Colaboración y revisión:
  • Ariel Rodrigues
72 vistas
  • Simplificar cifrado
    • ½ Tono
    • A
    • Bb
    • B
    • C
    • Db
    • D
    • Eb
    • E
    • F
    • F#
    • G
    • Ab
  • Agregar a la lista

    0 comentarios

    Ver todos los comentarios

    ¿Lograste tocar?

    0 Tocaron 0 Aún no

    ¡Graba un video tocando Beautiful Day y envíanoslo!

    00:00 / 00:00
    Outros vídeos desta música
    Repetir Calidad Automático
    Outros vídeos desta música
    00:00 / 00:00
    Automático
    Capítulos
    • Início
    • Tocando a música
    • Acordes da Introdução
    • Tocando Introdução e Primeira Parte
    • Ensinando Introdução
    • Ensinando Primeira Parte
    • Tocando Refrão e Repetições
    • Acordes da Segunda e Terceira Parte
    • Tocando Segunda e Terceira Parte
    • Ensinando Segunda e Terceira Parte
    • Tocando Final
    • Ensinando Final
    • Encerramento
    OK