Cifra Club

Beautiful Day

U2

Cifrado: Versão 4 (guitarra y guitarra eléctrica)
tono: D
Intro
E|(12)--------------------------(12)
B|-----(7)------------------(7)----
G|---------(7)----------(7)--------
D|-------------(7)--(7)------------]

verse
1
A|---------------------------------------
E|555777101010555555101010555-----------(x2) palm mute
2
E|--------0--------0-------------0-------0--------------------------------                                                                                                   
B|---7---------7-----7-------7-----7--------------------------------------
G|-6---7-----7---7-----4---4---4-----6-6---------------------------------- 

Chord
D|7--9--12--5--5-5-7----------
A|7--9--12--5--5-5-7----------
E|5--7--10--3--3-3-5----------(x2)

Bridge
E|------------------------------------------------------------------------
B|14-14-14-14-12-14-12-15-15-15-15-15-15-15-15-15----14-12-14-12-14-------
G|14-14-14-14-14-14-14-14-12-12-12-12-12-12-12-14-14-14-14-14-14-14------- (x2)

Before the part3 (See the world green and blue see china...) you make that

E|12-10-12-10--------------------------------------
B|-------------12-10-12-10-----------------------10
G|-------------------------11-9-11-9-----------9---
D|-----------------------------------12-9-12-9-----(x2)

Part 3
Em                                          D     
E|------------------------------------------12-10-12-10------------------------------------
B|----------------------------12-10-12-10----------------12-10-12-10-----------------------
G|------------------11-9-11-9----------------------------------------11-9-11-9-------------
D|7-9-7-9-12-9-12-9------------------------------------------------------------12-9-12-9--- (x1)

Em                  G                        D     
E|------------------------------------------12-10-12-10------------------------------------
B|----------------------------12-10-12-10----------------12-10-12-10-----------------------
G|------------------11-9-11-9----------------------------------------11-9-11-9-------------
D|7-9-7-9-12-9-12-9------------------------------------------------------------12-9-12-9--- (x2)

Em                  G                        D     
E|------------------------------------------12-10-12-10--------------------------------------
B|----------------------------12-10-12-10----------------12-10-12-10-------------------------
G|------------------11-9-11-9----------------------------------------11-9-11-9---------------
D|7-9-7-9-12-9-12-9------------------------------------------------------------12-9-12-9--7~- 

Bridge2
E|-----------------------------12-------------12---------------------
B|14-14-14-14-12-14-12-15---15----15----15------15---14--12-14-12----
G|14-14-14-14-14-14-14-14-12--------12----12------14-----14-14-14---- (x2)

end
E|--------------------5~-------------------3--------
B|-------------------------------------------3------
G|6--8--11--4--11--6---------6--8--11--4-------4----
D|7--9--12--5--12--7---------7--9--12--5---------5--
A|--------------------------------------------------
E|5--7--10--3--10--5---------5--7--10--3------------

Intro

Verse1
The heart is a bloom, shoots up through the stony ground
But there's no room, no space to rent in this town

verse2
You're out of luck and the reason that you had to care,
The traffic is stuck and you're not moving anywhere.
You thought you'd found a friend to take you out of this place
Someone you could lend a hand in return for grace

chord
It's a beautiful day
The sky falls and you feel like it's a beautiful day
Don't let it get away

verse2
You're on the road but you've got no destination
You're in the mud, in the maze of her imagination
You love this town even if that doesn't ring true
You've been all over and it's been all over you

chord
It's a beautiful day
Don't let it get away
it's a beautiful day

bridge
Touch me, take me to that other place
Teach me, I know I'm not a hopeless case

Verse3
See the world in green and blue
See China right in front of you
See the canyons broken by cloud
See the tuna fleets clearing the sea out
See the bedouin fires at night
See the oil fields at first light and,
See the bird with a leaf in her mouth
After the flood all the colours came out

Chord
It was a beautiful day
Don't let it get away
Beautiful day

Bridge
Touch me, take me to that other place
Reach me, I know I'm not a hopeless case

Vesrse1 (A little faster)
What you don't have you don't need it now
What you don't know you can feel it somehow
What you don't have you don't need it now
You don't need it now

Bridge2
Was a Beautiful day...

Bridge1
Goal!!! Goal!!! Beautiful Goal Goal!!! Beautiful Goal!!! Beautiful Goal Goal!!! Beautiful Goal!!!

Composición de Adam Clayton / Bono / Larry Mullen, Jr. / The Edge
Colaboración y revisión:
  • Rodrigo Kesselring
55 vistas
  • Simplificar cifrado
    • ½ Tono
    • A
    • Bb
    • B
    • C
    • Db
    • D
    • Eb
    • E
    • F
    • F#
    • G
    • Ab
  • Agregar a la lista

    0 comentarios

    Ver todos los comentarios

    ¿Lograste tocar?

    0 Tocaron 0 Aún no

    ¡Graba un video tocando Beautiful Day y envíanoslo!

    00:00 / 00:00
    Outros vídeos desta música
    Repetir Calidad Automático
    Outros vídeos desta música
    00:00 / 00:00
    Automático
    Capítulos
    • Início
    • Tocando a música
    • Acordes da Introdução
    • Tocando Introdução e Primeira Parte
    • Ensinando Introdução
    • Ensinando Primeira Parte
    • Tocando Refrão e Repetições
    • Acordes da Segunda e Terceira Parte
    • Tocando Segunda e Terceira Parte
    • Ensinando Segunda e Terceira Parte
    • Tocando Final
    • Ensinando Final
    • Encerramento
    OK