Cifra Club

Ice Ice Baby

Vanilla Ice

Tab de bajo: Principal
Last tab writer: Jeremy Berry
Corrections by: Alexandre Lima (*)

Intro                           (3x)
G:||-------------|---------------||---------|------------|
D:||*------------|--------------*||---------|------------|
A:||*-5-5-5-5550-|-5-5-5-5-5550-*||-05------|------757-7-|
E:||-------------|---------------||---------|------------|

Main                  (as needed)
G:||---------|-------------||
D:||*--------|------------*||
A:||*-5------|------757-7-*||
E:||---------|-------------||

Chorus                      (as needed)
G:||-------------|---------------||
D;||*------------|--------------*||
A:||*-5-5-5-5550-|-5-5-5-5-5550-*||
E:||-------------|---------------||

Yo, let's get out of here. Word to your mother.
G:|------------|------------|
D:|------------|------------|
A:|------757-7-|-5----2-3-4-|
E:|------------|------------|

The truth is: the bass does only this.

But it is cool to play the "synth" part, that goes like this:
D:||------3---|-5----5-3-|-----------|---||
A:||-5------5-|----------|-5-----3---|---||
E:||----------|----------|-----5---5-|-3-||

You can insert the main bass part in the 4th bar of the synth. I realy tried to insert it also on the 2nd bar but I couldn't. Any suggestions?

If you had the guts to wiew this tab, probably you are brave enough to listen to the music.
00:00 / 00:00
Otros videos de esta canción
Repetir
Otros videos de esta canción
Composición de Brian May / David Bowie / Earthquake / Freddie Mercury / John Deacon / Roger Taylor / Vanilla Ice
58 exhibiciones
00:00 / 00:00
OK