Cifra Club

Para Siempre

Vicente Fernández

Cifrado: Versão 4 (guitarra y guitarra eléctrica)
Selo Cifra Club: esta cifra foi revisada para atender aos critérios oficiais da nossa Equipe de Qualidade.
tono: Am
[Intro]
E|-------------0-2-3-2h3p2--0---0---------------------------|
B|----------0-----------------4---0-1---0h1---0-------------|
G|--------0---------------------------2-----2---------------|
D|------2---------------------------------------------------|
A|----2-------------------------------------------2h3h5---2-|
E|--0-------------------------------------------------------|

E|-----------------------------------------0-------|
B|---0---0---0---0---0---0---0-----------0---------|
G|-4---5---2---4---0---2---------------0-----0-----|
D|-------------------------4---------2-----------2-|
A|---------------------------------2-------------2-|
E|-------------------------------0---------------0-|

 Vale más un buen amor...
E|------------------------------------------------|
B|----------------------0---0---0---0---0---0---0-|
G|--------------------4---5---2---4---0---2-------|
D|--------------------------------------------4---|
A|------------------------------------------------|
E|------------------------------------------------|

E|------0-----0----0-----0------0-------0-------0---|
B|----0-----0----0-----0------0------0--------0-----|
G|-4-----4----5------2-----4-------0-------2--------|
D|--------------------------------------------------|
A|--------------------------------------------------|
E|--------------------------------------------------|

El Intermedio (Intermedium)

E|---7-8--7-8--7-8--7-8p7-8-10-10s12-7--------------------|
B|-10---10---10---10-------------------8-------8--7-8s10--|
G|---------------------------------------9---9------------|
D|--------------------------------------------------------|
A|--------------------------------------------------------|
E|--------------------------------------------------------|

E|---------------------------------------------|
B|--10-10-------8----10----12------------------|
G|---------------------------------------------|
D|---------------------------------------------|
A|---------------------------------------------|
E|---------------------------------------------|

El Final e intermedio (The final, and the intermedium)

E|-------8h10p8------8h10p8------8h10p8----7-8p7--8-10--10s12-|
B|-10-12-------10-12------10--12-------10---------------------|
G|------------------------------------------------------------|
D|------------------------------------------------------------|
A|------------------------------------------------------------|
E|------------------------------------------------------------|

E|--7---------------------------------------------------12-|
B|----8-------8--7--8s10--10-10--12-10h12p10--8---12----12-|
G|------9---9-------------------------------------12----12-|
D|---------------------------------------------------------|
A|---------------------------------------------------------|
E|---------------------------------------------------------|

Aqui van los acórdes (Here goes the song):

Am
Vale mas, un buen amor
                    E7
Que mil costales de oro
      Dm           E7
Vale mas, un buen amor
                   Am
Por eso eres mi tesoro


Valgo mucho, junto a ti
                   E7
Y soy muy feliz contigo
       Dm         E7
Vales mucho, para mi
                   am
Con el corazón te digo

     Dm    G7    C
Olvidemos, el pasado
      Dm   G7       C
Y lo que   diga la gente
      Dm             Am
La verdad es, que te amo
      E7          Am
Y me amas, Para siempre

     Dm    G7    C
Olvidemos, el pasado
    Dm     G7     C
Y vivamos, el presente
          Dm
Lo que importa es
         Am
Que me amas,
     E7          Am
y te amo, para siempre

  Dm  Am  E7  Am  Dm  Am  E7  Am

Vale mucho, un gran amor
                       E7
Que en el perdón a crecido
      Dm                E7
Hoy se que el llanto sirvió
                  Am
Para reforzar el nido

    Dm     G7    C
Olvidemos, el pasado
       Dm  G7       C
Y lo que   diga la gente
       Dm           Am
La verdad es, que te amo
      E7          Am
Y me amas, Para siempre

     Dm    G7    C
Olvidemos, el pasado
     Dm    G7     C
Y vivamos, el presente
          Dm
Lo que importa es
         Am
Que me amas,
     E7          Am
y te amo, para siempre

Fin (The End):-Dm  Am  E7  Am  C  Am

Thanks...                 A Guitar Is The Human Soul
                                      Speaking with Six Strings
************************************

| h  Hammer-on
| p  Pull-off
| s  Slide
Otros videos de esta canción
    49 exhibiciones
      • ½ Tono
      • Am
      • Bbm
      • Bm
      • Cm
      • C#m
      • Dm
      • Ebm
      • Em
      • Fm
      • F#m
      • Gm
      • G#m
    • Agregar a la lista

    Afinação da cifra

    Afinador online

      Ops (: Contenido disponible solo en portugués.
      OK