Cifra Club

Para Siempre

Vicente Fernández

Cifrado: Versão 3 (guitarra y guitarra eléctrica)
Selo Cifra Club: esta cifra foi revisada para atender aos critérios oficiais da nossa Equipe de Qualidade.
tono: Em
INTRO:
E|-------------0-2-3-2h3p2--0---0---------------------------|
B|----------0-----------------4---0-1---0h1---0-------------|
G|--------0---------------------------2-----2---------------|
D|------2---------------------------------------------------|
A|----2-------------------------------------------2h3h5---2-|
E|--0-------------------------------------------------------|


E|-----------------------------------------0-------|
B|---0---0---0---0---0---0---0-----------0---------|
G|-4---5---2---4---0---2---------------0-----0-----|
D|-------------------------4---------2-----------2-|
A|---------------------------------2-------------2-|
E|-------------------------------0---------------0-|

Vale más un buen amor
(Esta parte va rápida)
E|------0-----0----0-----0------0-------0-------0--|
B|----0-----0----0-----0------0------0--------0----|
G|-4-----4----5------2-----4-------0-------2-------|
D|------------------------------------------------|
A|------------------------------------------------|
E|-----------------------------------------------|

                    B7
Que mil costales de oro
      Am           B7
Vale mas, un buen amor
                   Em
Por eso eres mi tesoro


Valgo mucho, junto a ti
                   B7
Y soy muy feliz contigo
       Am         B7
Vales mucho, para mi
                   Em
Con el corazón te digo

     D7         G
Olvidemos, el pasado
      D7           G
Y lo que   diga la gente
       Am            Em
La verdad es, que te amo
     B7         Em
Y me amas, Para siempre


     D7         G
Olvidemos, el pasado
    D7           G
Y vivamos, el presente
         Am
Lo que importa es
       Em
Que me amas,
     B7        Em
y te amo, para siempre

E|-5-7-8-5-7-8-5-7-8-5-7-8-7-8-10-12-7-----------------------|
B|-------------------------------------8-------8-7-10-10-10--|
G|---------------------------------------9---9---------------|
D|-----------------------------------------------------------|
A|-----------------------------------------------------------|
E|-----------------------------------------------------------|



E|---------------------------------------------|
B|--8-10-12------------------------------------|
G|---------------------------------------------|
D|---------------------------------------------|
A|---------------------------------------------|
E|---------------------------------------------|


E|-5-7-8-5-7-8-5-7-8-5-7-8-7-8-10-12-7-----------------------|
B|-------------------------------------8-------8-7-10-10-10--|
G|---------------------------------------9---9---------------|
D|-----------------------------------------------------------|
A|-----------------------------------------------------------|
E|-----------------------------------------------------------|



E|---------------------------------------------|
B|--12-10-8------------------------------------|
G|---------------------------------------------|
D|---------------------------------------------|
A|---------------------------------------------|
E|---------------------------------------------|

     Em
Vale mucho, un gran amor
                      B7
Que en el perdón a crecido
    Am                  B7
Hoy se que el llanto sirvió
                  Em
Para reforzar el nido


     D7         G
Olvidemos, el pasado
      D7           G
Y lo que   diga la gente
       Am            Em
La verdad es, que te amo
     B7         Em
Y me amas, Para siempre


     D7         G
Olvidemos, el pasado
    D7           G
Y vivamos, el presente
         Am
Lo que importa es
       Em
Que me amas,
     B7        Em
y te amo, para siempre

FIN:

E|-5-7-8-5-7-8-5-7-8-5-7-8p7-8-10-12-7-----------------------|
B|-------------------------------------8-------8-7-10-10-10--|
G|---------------------------------------9---9---------------|
D|-----------------------------------------------------------|
A|-----------------------------------------------------------|
E|-----------------------------------------------------------|



E|-------------7-12----------------------------|
B|--12-10-8------------------------------------|
G|---------------------------------------------|
D|---------------------------------------------|
A|---------------------------------------------|
E|---------------------------------------------|
Otros videos de esta canción
    225 exhibiciones
      • ½ Tono
      • Am
      • Bbm
      • Bm
      • Cm
      • C#m
      • Dm
      • Ebm
      • Em
      • Fm
      • F#m
      • Gm
      • G#m
    • Agregar a la lista

    Afinação da cifra

    Afinador online

      Ops (: Contenido disponible solo en portugués.
      OK