Cifra Club

Aprenda

Empty Apartment

Yellowcard

Tablatura: Versão 3 (guitarra)
tono: C
Os acordes, que são usados também na versão acustica:
ENJOY!!! =D

    Am  C  G  D/F#  F  Fm
|--0--3--3---2----1---1---|
|--1--3--3---0----1---1---|
|--2--0--0---0----2---1---|
|--2--2--0---2----3---3---|
|--0--3--2---3----3---3---|
|--0--X--3---2----1---1---|

     Am
Call me out
           C
You stayed inside
         G
One you love
         D/F#
Is where you hide
         Am        C
Shot me down as I flew by
           G
Crash and burn
         D/F#            F             Fm
I think sometimes you forget where the heart is
       Am           C
Answer no to these questions
         G           D/F#
Let her go, learn a lesson
         Am             C
It's not me, you're not listening now
           G               D/F#
Can't you see something's missing?
       F              Fm
You forget where the heart is

**na parte do refrão, os acordes C e G mudam**

      C   G
|---0---0---|
|---1---1---|
|---0---0---|
|---2---0---|
|---3---2---|
|---0---3---|
           C            G
Take you away from that empty apartment
     Am         F
You stay and forget where the heart is
   C        G                    Am         F
Someday if ever you love me you'd say it's okay

solo:
|---------------------------------------------------------------------------------------
|----------------------------------------------------------------9----------------------
|-7--5-5h7~~~7--5h7--5~~~------5--7/9~~~-9--7h9--7~~~--7--5--7b-------7--5--7--5---5----
|---------------------------7----------------------------------------------------7----7-
|---------------------------------------------------------------------------------------
|---------------------------------------------------------------------------------------

----------------------|
----------------------|
-----4h5555-4----4----|
-5h7-----------5----7-|
----------------------|
----------------------|


        Am          C
Waking up from this nightmare
           G                D/F#
How's your life, what's it like there?
       Am           C
Is it all what you want it to be?
         G            D/F#
Does it hurt when you think about me?
         F         Fm
And how broken my heart is

REFRÃO 1X

       C                   G
It's okay to be angry and never let go
    Am                   F
It only gets harder the more that you know
C5                     G5
When you get lonely if no one's around
     A5                            F5
You know that I'll catch you when you're falling down

C5                    B5
We came together but you left alone
        A5                       F5
And I know how it feels to walk out on your own
C5                     B5
Maybe someday I will see you again
            A5                     F5
And you'll look me in my eyes and call me your friend

o solinho do violino pra guitarra:
|-8--10--12-----8--10--12--13-12-10-8-10---12h13-12h13-12h13-15--13-12-13-12-10-8---
|-----------------------------------------------------------------------------------
|-----------------------------------------------------------------------------------
|-----------------------------------------------------------------------------------
|-----------------------------------------------------------------------------------
|-----------------------------------------------------------------------------------

|-----8------8-----8-88-8-8--8-10-12-17-15---20-----------|
|-8-8---8888---8-8----------------------------------------|
|---------------------------------------------------------|
|---------------------------------------------------------|
|---------------------------------------------------------|
|---------------------------------------------------------|

REFRÃO 1X

      C5   B5  A5  F5
It's okay
      C5   B5  A5  F5
It's okay
Composição de Peter Mosely / Yellowcard
Colaboración y revision:
  • Bruno Nishiwaki
5 reproducciones
    • ½ Tono
    • A
    • Bb
    • B
    • C
    • Db
    • D
    • Eb
    • E
    • F
    • F#
    • G
    • Ab
  • Adicionar à lista

    0 comentarios

    Ver todos os comentários

    ¿Conseguiste tocar?

    0 Tocaram 0 Ainda não

    Grave um vídeo tocando Empty Apartment e nos envie!

    00:00 / 00:00
    outros vídeos desta música
    repetir qualidade Automático
    Outros vídeos desta música
    00:00 / 00:00
    Automático
    OK