Cifra Club

Preciso Ser Amado

Zezé Di Camargo e Luciano

Cifrado: Principal (guitarra y guitarra eléctrica)
tono: F
[Intro] F   C/E  Dm  Am  Bb  F  Dm  G7  C7  F  C7

E|-17-17-17-18-18b-(20)-(20)-18-17-15~(15)-\-/-13-13-13-15-15b-(17)-(17)-15-13-12~-|
B|---------------------------------------------------------------------------------|
G|---------------------------------------------------------------------------------|
D|---------------------------------------------------------------------------------|
A|---------------------------------------------------------------------------------|
E|---------------------------------------------------------------------------------|

E|-----------|------------------------------15b-(17)b| R-(15)-13-15--------15b-(17)bR-(15)-
B|--13-15----|-15-15-15-17-17/18-18-----13-------------------------15-15-----------------|
G|-----------|----------------------17---------------------------------------------------|
D|-----------|---------------------------------------------------------------------------|
A|-----------|---------------------------------------------------------------------------|
E|-----------|---------------------------------------------------------------------------|

E|--13-15--18b-(20)~~~----|---13p12-----------------------------------------------------|
B|------------------------|----------13-------------------------------------------------|
G|------------------------|--------------12---------------------------------------------|
D|------------------------|------------------15p14--------------------------------------|
A|------------------------|-------------------------15-12\10--10/12---------------------|
E|------------------------|-------------------------------------------------------------|


F               Am
Não preciso de amor
Bb                 F    C/E
Eu preciso é ser amado
Dm                       Am
O que eu quero é ter alguém
                       Bb
Que me queira amar também
               F
E fique do meu lado
                    Am
O que eu quero é muito mais
Bb                        F      C/E
Do que andar pelas calçadas
Dm                    Am
A procura de um olhar
                  Bb
De um corpo pra sonhar
            F
Uma nova namorada
E7                      A7+      F#m7
Quero além dos horizontes
Bm7       E7     A7+
Mais que uma madrugada
D#m7      G#7             C#
Sol que nasce atrás dos montes
D#m7    G#7            C#   Em  A7
Não clareia a minha estrada
D            A7             F#7
Eu não faço amor por fazer
Bm                F#m
Tem que ser muito mais que prazer
G                 D
Tem que ser todo dia
      Bm   E7     A7    D
Sem cama vazia no amanhecer


(  Gm  C7  )


E7                      A7+      F#m7
Quero além dos horizontes
Bm7       E7      A7+
Mais que uma madrugada
D#m7      G#7               C#
Sol que nasce atrás dos montes
D#m7   G#7            C#   Em  A7
Não clareia a minha estrada
D            A7            F#7
Eu não faço amor por fazer
 Bm                F#m
Tem que ser muito mais que prazer
 G                D
Tem que ser todo dia
            E7              A7
A grande magia de amar é viver
 D            A7          F#7
Eu não faço amor por fazer
Bm                  F#m
Tem que ser muito mais que prazer
G                  D
Tem que ser todo dia
      Bm   E7
Sem cama vazia, no amanhecer
Composición de César Augusto / Piska
Colaboración y revisión:
3.463 vistas
    • ½ Tono
    • A
    • Bb
    • B
    • C
    • Db
    • D
    • Eb
    • E
    • F
    • F#
    • G
    • Ab
  • Agregar a la lista

    0 comentarios

    Ver todos los comentarios
    00:00 / 00:00
    Outros vídeos desta música
    Repetir Calidad Automático
    Outros vídeos desta música
    00:00 / 00:00
    Automático
    OK